Bombs Away

Lagwagon

Tom: G
This is a awsome song!
i'm sorry cause his tab may be a little confusing!!

#1t1#"you'll never be forgotten"
#1t2#e|-------------------------------------------------------------|
b|-------------------------------------------------------------|
g|---77777777777-44444444444-----------------------------------|
d|---77777777777-44444444444-555557777-------------------------|
a|---55555555555-22222222222-555557777-------------------------|
e|---------------------------333335555-------------------------|#/1t2##/1t1#

#2t1#"but i wanna know"
#2t2#e|-------------------------------------------------------------|
b|-------------------------------------------------------------|
g|---77777777777-4444444444-----------77767--------------------|
d|---77777777777-4444444444-555557777-xxxxx--------------------|
a|---55555555555-2222222222-555557777-55545--------------------|
e|--------------------------333335555--------------------------|
                            .........#/2t2##/2t1#
#3t1#"this is the last time"
#3t2#e|-------------------------------------------------------------|
b|-------------------------------------------------------------|
g|---7777-9999-----------7777-99999----------11-9--------------|
d|---7777-9999-5555-7777-7777-99999-5555-777-x--x--------------|
a|---5555-7777-5555-7777-5555-77777-5555-777-9--7--------------|
e|-------------3333-5555------------3333-555-------------------|#/3t2##/3t1#

#4t1#"go pick up the pieces"
#4t2#e|-------------------------------------------------------------|
b|-------------------------------------------------------------|
g|---7777-4444-7777-6666-77-66-44------------------------------|
d|---7777-4444-7777-6666-77-66-44-77-555555-777777-------------|
a|---5555-2222-5555-4444-55-44-22-77-555555-777777-------------|
e|--------------------------------55-333333-555555-------------|
                                      .....  .....#/4t2##/4t1#
#5t1#(breakdown)
#5t2#e|--------------------------------------------------------------------|
b|--------------------------------------7-----------------------------|
g|-7-6-4---------77---7---9-7-----7---9---------7---9-7-------7---6-4-|
d|-7-6-4-7-5-4-2-77-7---7-----77-7---7-----55-7---7------77-7---7-----|
a|-5-4-2-7-5-4-2-55-----------77-----------55------------77-----------|
e|-------5-3-2-0--------------55-----------33------------55-----------|#/5t2##/5t1#

#6t1#"bombs await..."
#6t2#e|-------------------------------------------------------------|
b|-------------------------------------------------------------|
g|---7~--------------------------------------------------------|
d|---7~--7~--5~--7~--------------------------------------------|
a|---5~--7~--5~--7~--------------------------------------------|
e|-------5~--3~--5~--------------------------------------------|#/6t2##/6t1#

#7t1#"bombs away..."
#7t2#e|-------------------------------------------------------------|
b|-------------------------------------------------------------|
g|---77777777--------------------------------------------------|
d|---77777777-77777777-55555555-77777777-----------------------|
a|---55555555-77777777-55555555-77777777-----------------------|
e|------------55555555-33333333-55555555-----------------------|#/7t2##/7t1#

bridge
guitar 1(repeat this a lot)     (but sometimes you do this)
#8t1##8t2#e|--------------------------    --------------------------|
b|--------------------------    --------------------------|
g|--77777777777777777777777-    -7777-1111111-9999-7777---|
d|--xxxxxxxxxxxxxxxxxxxxxxx-    -xxxx-x-x-x-x-xxxx-xxxx---|
a|--55555555555555555555555-    -5555-9-9-9-9-7777-5555---|
e|--------------------------    --------------------------|#/8t2##/8t1#

#9t1#guitar 2(repeat this all bridge)
#9t2#e|-------------------------------------------------------------|
b|-------------------------------------------------------------|
g|---777777777-77--444444444-44--------------------------------|
d|---777777777-77--444444444-44--555557777---------------------|
a|---555555555-55--222222222-22--555557777---------------------|
e|-------------------------------333335555---------------------|#/9t2##/9t1#

#10t1#"you carry the burden"
#10t2#e|-------------------------------------------------------------|
b|-------------------------------------------------------------|
g|---77777777777-44444444444-----------------------------------|
d|---77777777777-44444444444-555557777-------------------------|
a|---55555555555-22222222222-555557777-------------------------|
e|---------------------------333335555-------------------------|#/10t2##/10t1#

#11t1#"the feeling incomplete"
#11t2#e|-------------------------------------------------------------|
b|-------------------------------------------------------------|
g|---77777777777-4444444444-----------77767--------------------|
d|---77777777777-4444444444-555557777-xxxxx--------------------|
a|---55555555555-2222222222-555557777-55545--------------------|
e|--------------------------333335555--------------------------|
                            .........#/11t2##/11t1#
#12t1#"this is the last time"
#12t2#e|-------------------------------------------------------------|
b|-------------------------------------------------------------|
g|---7777-9999-----------7777-99999----------11-9--------------|
d|---7777-9999-5555-7777-7777-99999-5555-777-x--x--------------|
a|---5555-7777-5555-7777-5555-77777-5555-777-9--7--------------|
e|-------------3333-5555------------3333-555-------------------|#/12t2##/12t1#

#13t1#"go pick up the pieces"
#13t2#e|-------------------------------------------------------------|
b|-------------------------------------------------------------|
g|---7777-4444-7777-6666-77-66-44------------------------------|
d|---7777-4444-7777-6666-77-66-44-77-555555-777777-------------|
a|---5555-2222-5555-4444-55-44-22-77-555555-777777-------------|
e|--------------------------------55-333333-555555-------------|
                                     .....  ......#/13t2##/13t1#
#14t1#(breakdown 2)
#14t2#e|-------------------------------------------------------------|
b|-------------------------------------------------------------|
g|---7-6-4-----------------------------------------------------|
d|---7-6-4-7-5~-4~-2~------------------------------------------|
a|---5-4-2-7-5~-4~-2~------------------------------------------|
e|---------5-3~-2~-0~------------------------------------------|#/14t2##/14t1#

#15t1#"bombs await..."
#15t2#e|-------------------------------------------------------------|
b|-------------------------------------------------------------|
g|---7~--------------------------------------------------------|
d|---7~--7~--5~--7~--------------------------------------------|
a|---5~--7~--5~--7~--------------------------------------------|
e|-------5~--3~--5~--------------------------------------------|#/15t2##/15t1#

#16t1#"bombs away..."
#16t2#e|-------------------------------------------------------------|
b|-------------------------------------------------------------|
g|---77777777--------------------------------------------------|
d|---77777777-77777777-55555555-77777777-----------------------|
a|---55555555-77777777-55555555-77777777-----------------------|
e|------------55555555-33333333-55555555-----------------------|#/16t2##/16t1#

#17t1#(outro)
#17t2#e|-------------------------------------------------------------|
b|-------------------------------------------------------------|
g|---777777777-444444444-----------------7~--------------------|
d|---777777777-444444444----5-------7----7~--------------------|
a|---555555555-222222222--5---5---7---7--5~--------------------|
e|-----------------------3------5------------------------------|#/17t2##/17t1#
Composição: Colaboração e revisão: