busca

Contortionist

Lagwagon

Tom: E
Verse1: Both    
e |-------------------|
B |-------------------|
G |-2------------6--4-| Play this bar twice only
D |-2---2---6----6--4-| when playing the verse
A |-0---2---6----4--2-|
E |-----0---4---------|

Verse1 (Part2):
   Gtr.1                 Gtr.2
e |---------------------|---------------------|
B |---------------------|---------------------|
G |-2-------------6--4--|---------------------|
D |-2----2----6---6--4--|---------------------|
A |-0----2----6---4--2--|-7~--7~--6~---4~--6~-|
E |------0----4---------|---------------------|

Chorus:
e |---------------------|
B |---------------------|
G |-9---------2----6--4-|
D |-9----6----2----6--4-| x2
A |-7----6----0----4--2-|
E |-0----4--------------|

Verse2: Both    
e |-------------------|
B |-------------------|
G |-2------------6--4-|
D |-2---2---6----6--4-| 
A |-0---2---6----4--2-|
E |-----0---4---------|

Verse2 (Part2):
   Gtr.1                 Gtr.2
e |---------------------|--------------------------|
B |--------2x-----------|--------------------------|
G |-2-------------6--4--|--------------------------|
D |-2----2----6---6--4--|----7~-6~----6~-----------|
A |-0----2----6---4--2--|-0~-------7~----6~--4~-6~-|
E |------0----4---------|--------------------------|

Verse2 (Part3):
   Gtr.1                 Gtr.2
e |---------------------|---------------------|
B |---------------------|---------------------|
G |-2-------------6--4--|---------------------|
D |-2----2----6---6--4--|---------------------| x2
A |-0----2----6---4--2--|-7~--7~--6~---4~--6~-|
E |------0----4---------|---------------------|

Interlude:  
  Gtr.1 (Upstrokes)|Both  | Gtr.2           (Upstrokes)
e |----------------|------|------[2X]-------|*|------[2X]-------|-----|
B |----------------|------|-----------------|---------|-----------------|-----|
G |--9----8----9---|--4-5-|-----------------|---8-----|-----------------|-4-5-|
D |--11---10---11--|--4-5-|-------2---------|---10----|-------2---------|-4-5-|
A |--11---11---12--|--2-3-|---2-4---4-2-0-2-|---11----|---2-4---4-2-0-2-|-2-3-|
E |----------------|------|-4---------------|---------|-4---------------|-----|

Guitar Solo: Gtr.1
e |---------------|-----------------------------89-11-12-11-9-----------11-------14---|
B |---------------|-----------------------7-9b-9--------------12-10-12b----12-13----13|
G |---8------8--5-|-6b-6-8-9--8-6-8b-9b-8---------------------------------------------|
D |-9---9-10------|-------------------------------------------------------------------|
A |---------------|-------------------------------------------------------------------|
E |---------------|-------------------------------------------------------------------|

e |-------Harmony!--------------------------------|
B |Gtr2|----5-7-9--7--5-7b-5-4--5--7-9-7-5-9b--7b-|
G |Gtr1|-6b-6-8-9--8--6-8b-6-5--6b-8-9-8-6-4b--5b-|
D |-----------------------------------------------|
A |-----------The-idea-is-to-have-1-guitar--------|
E |-----------play-per-line-of-notes-here!--------|

Verse3:
   Gtr.1                 Gtr.2
e |---------------------|---------------------|
B |---------------------|---------------------|
G |-2-------------6--4--|---------------------|
D |-2----2----6---6--4--|---------------------|
A |-0----2----6---4--2--|-7~--7~--6~---4~--6~-|
E |------0----4---------|---------------------|

   Gtr.1                 Gtr.2
e |---------------------|---------------------|
B |---------------------|---------------------|
G |-2-------------6--4--|---------------------|
D |-2----2----6---6--4--|---------6~-------4~-|
A |-0----2----6---4--2--|-7~--7~-----6~--4~---|
E |------0----4---------|---------------------|

Chorus:
e |---------------------|
B |---------------------|
G |-9---------2----6--4-|
D |-9----6----2----6--4-| x2
A |-7----6----0----4--2-|
E |-0----4--------------|

Outro: Remember the upstrokes (Gtr.2)?
End on these notes too
e |Gtr.2-|Gtr.1|
B |------|-----|
G |--9---|--6--|
D |--11--|--6--|
A |--11--|--4--|
E |------|-----|

Clipes

Cifra Club Pro

Aproveite o Cifra Club com benefícios exclusivos e sem anúncios
7 dias grátis
Cifra Club Pro
Aproveite o Cifra Club com benefícios exclusivos e sem anúncios
7 dias grátis