Dancing The Collapse

Lagwagon

Tom: G
Tab by: Aaron Meredith
Standard tuning

#1t1#Intro:guitar 1
#1t2#e|------------------------------|
B|------------------------------|
G|-555--------------------------|
D|-555--555-5-777--3-3-3-3------|
A|-333--555-5-777--3-3-3-3------|
E|------333-3-555--1-1-1-1------|#/1t2##/1t1#

#2t1#Intro:guitar 2
#2t2#e|------------------------------|
B|------------------------------|
G|-555--777-4-777-10-10-10-10---|
D|-xxx--xxx-x-xxx--x--x--x--x---|
A|-333--555-2-555--8--8--8--8---|
E|------------------------------|#/2t2##/2t1#

#3t1##3t2#e|------------------------------------------|
B|------------------------------------------|
G|-55-55-5----------------------------------|
D|-55-55-5--55-55-55--777-555--33xxx33-x5---|
A|-33-33-3--55-55-55--777-555--33xxx33-x5---|
E|----------33-33-33--555-333--11xxx11-x3---|#/3t2##/3t1#

#4t1#Verse:
#4t2#e|------------------------------------------------|
B|------------------------------------------------|
G|-55xxx55-55-------------------------------------|
D|-55xxx55-55--55xxx55-55--77xxx77-77--3x3x3-x5---|
A|-33xxx33-33--55xxx55-55--77xxx77-77--3x3x3-x5---|
E|-------------33xxx33-33--55xxx55-55--1x1x1-x3---|#/4t2##/4t1#

#5t1##5t2#e|--------------------------------------------------|
B|--------------------------------------------------|
G|-55xxx55-55---------------------------------------|
D|-55xxx55-55--55xxx55-55--777-x-555-x-33xxx33-x5---|
A|-33xxx33-33--55xxx55-55--777-x-555-x-33xxx33-x5---|
E|-------------33xxx33-33--555-x-333-x-11xxx11-x3---|#/5t2##/5t1#

#6t1##6t2#e|------------------------------------------------|
B|------------------------------------------------|
G|-55xxx55-55-------------------------------------|
D|-55xxx55-55--55xxx55-55--77xxx77-77--3x3x3-x5---|
A|-33xxx33-33--55xxx55-55--77xxx77-77--3x3x3-x5---|
E|-------------33xxx33-33--55xxx55-55--1x1x1-x3---|#/6t2##/6t1#


#7t1##7t2#e|-----------------------------------------------|
B|-----------------------------------------------|
G|-55xxx55-55------------------------------------|
D|-55xxx55-55--55xxx55-55--2-22--3-33--5--556----|
A|-33xxx33-33--55xxx55-55--2-22--3-33--5--556----|
E|-------------33xxx33-33--0-00--1-11--3--334----|#/7t2##/7t1#

#8t1#Guitar 2 (during last part of verse)
#8t2#e|--------------------------------------------|
B|--------------------------------------------|
G|-55555555-77777777-4-44-5-55-7-77--9-7-5----|
D|-xxxxxxxx-xxxxxxxx-x-xx-x-xx-x-xx--x-x-x----|
A|-33333333-55555555-2-22-3-33-5-55--7-5-3----|
E|--------------------------------------------|#/8t2##/8t1#


#9t1#Bridge:all single notes- pm
#9t2#e|------------------------------------------------|
B|------------------------------------------------|
G|---------------7----7-----------------55---11---|
D|---7----7------7----7------5----5-----55---22---|
A|---7----7----5-5-55-5-5----5----5---3-33-2-22---|
E|-5-5-55-5-5--------------3-3-33-3-3-------------|#/9t2##/9t1#


#10t1##10t2#e|--------------------------------------------------|
B|---------------6----6-----------------------------|
G|---------------7----7------4----4-----------------|
D|---7----7------7----7------5----5---333xx555xx----|
A|---7----7----5-5-55-5-5----5----5---333xx555xx----|
E|-5-5-55-5-5--------------3-3-33-3---111xx333xx----|#/10t2##/10t1#

#11t1#Guitar 2: (played during last part)
#11t2#e|--------------------------------------------------|
B|--------------------------------------------------|
G|-------------------------------------10---9---7---|
D|--------------------------------------x---x---x---|
A|--------------------------------------8---7---5---|
E|--------------------------------------------------|#/11t2##/11t1#

#12t1#Verse:
#12t2#e|------------------------------------------------|
B|------------------------------------------------|
G|-55xxx55-55-------------------------------------|
D|-55xxx55-55--55xxx55-55--77xxx77-77--3x3x3-x5---|
A|-33xxx33-33--55xxx55-55--77xxx77-77--3x3x3-x5---|
E|-------------33xxx33-33--55xxx55-55--1x1x1-x3---|#/12t2##/12t1#

#13t1##13t2#e|-----------------------------------------------|
B|-----------------------------------------------|
G|-55xxx55-55------------------------------------|
D|-55xxx55-55--55xxx55-55--2-22--3-33--5--556----|
A|-33xxx33-33--55xxx55-55--2-22--3-33--5--556----|
E|-------------33xxx33-33--0-00--1-11--3--334----|#/13t2##/13t1#

#14t1#Guitar 2 (during last part of verse)
#14t2#e|--------------------------------------------|
B|--------------------------------------------|
G|-55555555-77777777-4-44-5-55-7-77--9-7-5----|
D|-xxxxxxxx-xxxxxxxx-x-xx-x-xx-x-xx--x-x-x----|
A|-33333333-55555555-2-22-3-33-5-55--7-5-3----|
E|--------------------------------------------|#/14t2##/14t1#

#15t1##15t2#e|------------1----------------------|
B|----1------3-3-------0-------------|
G|---2-2----2---2-----0-0-----0---1--|
D|--2---2--0-------------0---2---2---|
A|-0----------------2-------3---2----|
E|-----------------3-----------------|#/15t2##/15t1#

#16t1##16t2#e|-------------------------------|
B|----1--------0-------1-----3---|
G|---0-0------0-0-----2-2----2---|
D|--2---2--------0---2---2---0---|
A|-3--------2-------0--------0---|
E|---------3---------------------|#/16t2##/16t1#

#17t1##17t2#e|------------------------------------------|
B|------------------------------------------|
G|------------------------------------------|
D|-0------------2-----------------3--2--0---|
A|---0-2-3h-2-0-2----------0--2-------------|
E|--------------1----1--3-------------------|#/17t2##/17t1#


#18t1#Guitar lead: (guitar during lead-same as verse)
#18t2#e|--------------------------------------------------------
B|--------------------------------------------------------
G|--------------------------------------------------------
D|----------------------------------------------------5~--
A|-3~--5--/7--5~--7--/8--7~---7--/8--7~--5--7--5--\2------
E|--------------------------------------------------------#/18t2##/18t1#

#19t1##19t2#  --7b-5-\3------------------------------------------------|
  ----------5b-3-------------------------------------------|
  ---------------5---5-5-5--5\4-2p-0p--0-0-----------------|
  ------------------------------------------3-2p-0p--------|
  --------------------------------------------------3~--2--|
  ---------------------------------------------------------|#/19t2##/19t1#

#20t1##20t2#e|-----------------------------------------------------------|
B|-----------------------------------------------------------|
G|---------------------------12-10---9-10--9--7--(guitar2)---|
D|-----------------------------------------------------------|
A|--3(x16)--------------------7--8--10--8--7--5--(guitar1)---|
E|---------2(x16)--0(x16)------------------------------------|#/20t2##/20t1#

#21t1##21t2#e|-----------------------------------------------|
B|-----------------------------------------------|
G|-55xxx55-55------------------------------------|
D|-55xxx55-55--55xxx55-55--2-22--3-33--5--555----|
A|-33xxx33-33--55xxx55-55--2-22--3-33--5--555----|
E|-------------33xxx33-33--0-00--1-11--3--333----|#/21t2##/21t1#

#22t1#Guitar 2 (during last part)
#22t2#e|--------------------------------------------|
B|--------------------------------------------|
G|-55555555-77777777-4-44-5-55-7-77--9-7-4----|
D|-xxxxxxxx-xxxxxxxx-x-xx-x-xx-x-xx--x-x-x----|
A|-33333333-55555555-2-22-3-33-5-55--7-5-2----|
E|--------------------------------------------|#/22t2##/22t1#

#23t1#Outro: pm during first 1&1/2 times
#23t2#e|-------------------------------------------|
B|-------------------------------------------|
G|-------------------55555555----------------|x5
D|-33333333-55555555-55555555-22222222-------|
A|-33333333-55555555-33333333-22222222-------|
E|-11111111-33333333----------00000000-------|#/23t2##/23t1#

#24t1##24t2#e|--------------------------------|
B|--------------------------------|
G|-------------------55555555-----|..(absent)
D|-33333333-55555555-55555555-----|
A|-33333333-55555555-33333333-----|
E|-11111111-33333333--------------|#/24t2##/24t1#


Guitar 2: played during second 
    half of outro (wah pedal)
#25t1##25t2#e|--------------------------|
B|--------------------------|
G|-14----12----9----13------|x3
D|--x-----x----x-----x------|
A|-12----10----7----11------|
E|--------------------------|#/25t2##/25t1#

#26t1##26t2#e|-------------------|
B|-------------------|
G|-14----12----9-----|..(absent)
D|--x-----x----x-----|
A|-12----10----7-----|
E|-------------------|#/26t2##/26t1#
Composição: Antonio Buglione / Joey CapeColaboração e revisão: