Falling Apart

Lagwagon

Tom: G
(intro)

#1t1##1t2#e|---------------------------------------------------------
b|---------------------------------------------------------
g|444555566667776666666666--444555566664444666688899-------
d|xxxxxxxxxxxxxxxxxxxxxxxx--xxxxxxxxxxxxxxxxxxxxxxxx-------
a|222333344445554444444222--222333344442222444466677-222222
e|---------------------------------------------------000000#/1t2##/1t1#
                                                  pm......
(verse) (hello...)
#2t1##2t2#e|---------------------------------------------------------
b|---------------------------------------------------------
g|------66-----------------44----------66------------------
d|2-66--66--22--7--66--44--44---2--66--66-2--66-88---------    2x
a|2-66--44--22--7--77--44--22---2--66--44-2--66-88-22222222
e|0-44------00--5--44--22-------0--44-----0--44-66-00000000#/2t2##/2t1#
                                                pm ........

don't know wut this is but its not part of verse
      gu.2     gu.2     gu.2
#3t1##3t2#e|---|----|---|----|---|----|-----
b|---|5---|---|5---|---|5---|-----
g|666|-6-6|666|-6-6|---|-6-6|-----
d|666|--6-|666|--6-|777|--6-|666-6
a|444|----|444|----|777|----|666-6
e|---|----|---|----|555|----|444-4#/3t2##/3t1#
pm..  .... ..  .... ..       ..

#4t1##4t2#e|-----------------------------------------------------------------
b|-----------------------------------------------------------------
g|-----------------------------------------------------------------
d|22222222222222226666666666666666777777777777777799999999999999999
a|22222222222222226666666666666666444444444444444499999999999999999
e|00000000000000004444444444444444555555555555555577777777777777777#/4t2##/4t1#
pm.........................................

#5t1#(verse 2 - second verse the same...)
#5t2#e|----------------------------------------------------------
b|----------------------------------------------------------
g|------66-----------------44----------66-------------------
d|2-66--66--22--7--66--44--44---2--66--66-2--66-88----------   2x
a|2-66--44--22--7--77--44--22---2--66--44-2--66-88-22222222-
e|0-44------00--5--44--22-------0--44-----0--44-66-00000000-#/5t2##/5t1#

#6t1#(solo in the verse)
#6t2#e|14---14--12--12--11--11--12--12--14-
b|---14--14--14--14--14--14--14--14---#/6t2##/6t1#

#7t1#(chorus)
#7t2#e|-----------------------------
b|-----------------------------
g|----------6---4--------------
d|--7---2--6---4---7---2---6--9
a|-7---2--4---2---7---2---6--9-
e|5---0----------5---0---4--7--#/7t2##/7t1#

(were already...)
(same cords fron the chorus just sturm them)

#8t1#      gu.2     gu.2     gu.2
#8t2#e|---|----|---|----|---|----|-----
b|---|5---|---|5---|---|5---|-----
g|666|-6-6|666|-6-6|---|-6-6|-----
d|666|--6-|666|--6-|777|--6-|666-6
a|444|----|444|----|777|----|666-6
e|---|----|---|----|555|----|444-4#/8t2##/8t1#
pm..  .... ..  .... ..       ..

#9t1##9t2#|-----------------------------------------------------------------
b|-----------------------------------------------------------------
g|-----------------------------------------------------------------
d|22222222222222226666666666666666777777777777777799999999999999999
a|22222222222222226666666666666666444444444444444499999999999999999
e|00000000000000004444444444444444555555555555555577777777777777777#/9t2##/9t1#
pm.........................................
Composição: Antonio Buglione / Chris Rest / Joey CapeColaboração e revisão: Mateus Fontana