busca

Falling Apart

Lagwagon

Tom: A
(intro)

e|---------------------------------------------------------
b|---------------------------------------------------------
g|444555566667776666666666--444555566664444666688899-------
d|xxxxxxxxxxxxxxxxxxxxxxxx--xxxxxxxxxxxxxxxxxxxxxxxx-------
a|222333344445554444444222--222333344442222444466677-222222
e|---------------------------------------------------000000
                                                  pm......
(verse) (hello...)
e|---------------------------------------------------------
b|---------------------------------------------------------
g|------66-----------------44----------66------------------
d|2-66--66--22--7--66--44--44---2--66--66-2--66-88---------    2x
a|2-66--44--22--7--77--44--22---2--66--44-2--66-88-22222222
e|0-44------00--5--44--22-------0--44-----0--44-66-00000000
                                                pm ........

don't know wut this is but its not part of verse
      gu.2     gu.2     gu.2
e|---|----|---|----|---|----|-----
b|---|5---|---|5---|---|5---|-----
g|666|-6-6|666|-6-6|---|-6-6|-----
d|666|--6-|666|--6-|777|--6-|666-6
a|444|----|444|----|777|----|666-6
e|---|----|---|----|555|----|444-4
pm..  .... ..  .... ..       ..

e|-----------------------------------------------------------------
b|-----------------------------------------------------------------
g|-----------------------------------------------------------------
d|22222222222222226666666666666666777777777777777799999999999999999
a|22222222222222226666666666666666444444444444444499999999999999999
e|00000000000000004444444444444444555555555555555577777777777777777
pm.........................................

(verse 2 - second verse the same...)
e|----------------------------------------------------------
b|----------------------------------------------------------
g|------66-----------------44----------66-------------------
d|2-66--66--22--7--66--44--44---2--66--66-2--66-88----------   2x
a|2-66--44--22--7--77--44--22---2--66--44-2--66-88-22222222-
e|0-44------00--5--44--22-------0--44-----0--44-66-00000000-

(solo in the verse)
e|14---14--12--12--11--11--12--12--14-
b|---14--14--14--14--14--14--14--14---

(chorus)
e|-----------------------------
b|-----------------------------
g|----------6---4--------------
d|--7---2--6---4---7---2---6--9
a|-7---2--4---2---7---2---6--9-
e|5---0----------5---0---4--7--

(were already...)
(same cords fron the chorus just sturm them)

      gu.2     gu.2     gu.2
e|---|----|---|----|---|----|-----
b|---|5---|---|5---|---|5---|-----
g|666|-6-6|666|-6-6|---|-6-6|-----
d|666|--6-|666|--6-|777|--6-|666-6
a|444|----|444|----|777|----|666-6
e|---|----|---|----|555|----|444-4
pm..  .... ..  .... ..       ..

|-----------------------------------------------------------------
b|-----------------------------------------------------------------
g|-----------------------------------------------------------------
d|22222222222222226666666666666666777777777777777799999999999999999
a|22222222222222226666666666666666444444444444444499999999999999999
e|00000000000000004444444444444444555555555555555577777777777777777
pm.........................................

Clipes

Cifra Club Pro

Aproveite o Cifra Club com benefícios exclusivos e sem anúncios
7 dias grátis
Cifra Club Pro
Aproveite o Cifra Club com benefícios exclusivos e sem anúncios
7 dias grátis