Heartbreaking Music

Lagwagon

Tom: G
Album: Resolve (2005)

Drop Db tuning
this is the closest i could git...u mite b able to tinker around with the
chorus because i couldnt really find the rite chords but i did my best

#1t1#Verse x2
#1t2#e|--------------------------------|  for the lead guitar instead of the
b|--------------------------------|  G and B play
g|--------5-----7-----------4-----|  
d|--2-----5-x8--7-x8--5-----4-x4--|  g--12-----11----
a|--2-x8--3-----5-----5-x4--2-----|  d---x-x4---x-x4-
e|--0-----------------3-----------|  a--10------9----#/1t2##/1t1#

#2t1#Chorus
#2t2#e|------------------------------------------------------------------------|
b|----------99-10-9-1212-12---------1111-11-11-1212-12---------10-9-------|
g|--5---7---99--9-9-1212-12-5---7---1111-12-11-1212-12----------9-9--7x7--|
d|--5---7-------------------5---7----------------------12-10-9-------7x7--|
a|--3---5-------------------3---5------------------------------------5x5--|
e|--------------------------------\------------------x2-----------------/-|#/2t2##/2t1#

verse x2 (play the last B 8x)
chorus

#3t1#Bridge x2
#3t2#e|----------------------------------------|
b|----------------------------------------|
g|---------------55------77-444555444222--|
d|--22-5-22-22-5-55-22-5-77-444555444222--|
a|--22-5-22-22-5-33-22-5-55-222333222000--|
e|--00-3-00-00-3----00-3------------------|#/3t2##/3t1#

#4t1#Bridge 2 (other guitar plays the other bridge)
#4t2#e|-----------------------------------------------------------------|
b|-----------------------------------------------------------------|
g|--1212-11-121212--1212-11-999--1212-11--999-1111111212111111999--|
d|---x-x--x--x-x-x---x-x--x-xxx---x-x--x--xxx--x-x-x-x-x-x-x-xxxx--|
a|--1010--9-101010--1010--9-777--1010--9--777--9-9-91010-9-9-9777--|
e|-----------------------------------------------------------------|#/4t2##/4t1#

#5t1#Bridge 3Rhythm
#5t2#e|-----------------------------------|
b|-----------------------------------|
g|-----------55555555-77777777-------|
d|--55555555-55555555-77777777-5555-4|
a|--55555555-33333333-55555555-5555-4|
e|--33333333-------------------3333-2|#/5t2##/5t1#

#6t1#Bridge 3Lead
#6t2#e|----------------------------------------------------------------|
b|----------------------------------------------------------------|
g|--1414141414141414-1111111111111111-1212121212121212-11111111-9-|
d|---x-x-x-x-x-x-x-x--x-x-x-x-x-x-x-x--x-x-x-x-x-x-x-x--x-x-x-x-x-|
a|--1212121212121212--9-9-9-9-9-9-9-9-1010101010101010--9-9-9-9-7-|
e|----------------------------------------------------------------|#/6t2##/6t1#

verse x2
chorus

#7t1#end on d|-2-|
#7t2#       a|-2-|
       e|-0-|#/7t2##/7t1#

like i sed i need to work on the chorus a bit but most of its rite
Composição: Colaboração e revisão: