Lamens Terms

Lagwagon

Tom: G
#1t1#Intro:
#1t2#E|-------------------------------------------------------------------------|
B|-------------------------------------------------------------------------|
G|--9-----------4----------5-----------6-----8--------9--------------------|
D|--x-----------x----------x-----------x-----x--------x--------------------|
A|--7-----------2----------3-----------4-----6--------7--------------------|
E|-------------------------------------------------------------------------|#/1t2##/1t1#

#2t1#Verso 1:
#2t2#E|-------------------------------------------------------------------------|
B|-------------------------------------------------------------------------|
G|--------------6----------------------------------------------------------|
D|--7---9---6---6---9---7---9----------------------------------------------|
A|--7---9---6---4---9---7---9----------------------------------------------|
E|--5---7---4-------7---5---7----------------------------------------------|#/2t2##/2t1#

#3t1##3t2#E|-------------------------------------------------------------------------|
B|-------------------------------------------------------------------------|
G|-------------------------------------------------------------------------|
D|--2---6---7---2---9---7---2----9---7---9---------------------------------|
A|--2---6---7---2---9---7---2----9---7---9---------------------------------|
E|--0---4---5---0---7---5---0----7---5---7---------------------------------|#/3t2##/3t1#

#4t1#Verso 2:
#4t2#E|-------------------------------------------------------------------------|
B|-------------------------------------------------------------------------|
G|--------------6----------------------------------------------------------|
D|--7---9---6---6---9---7---9----------------------------------------------|
A|--7---9---6---4---9---7---9----------------------------------------------|
E|--5---7---4-------7---5---7----------------------------------------------|#/4t2##/4t1#

#5t1##5t2#E|-------------------------------------------------------------------------|
B|-------------------------------------------------------------------------|
G|---------------------6---------------------------------------------------|
D|-2---6---7---9---6---6---9---7---9---------------------------------------|
A|-2---6---7---9---6---4---9---7---9---------------------------------------|
E|-0---4---5---7---4-------7---5---7---------------------------------------|#/5t2##/5t1#

#6t1#Refrão:
#6t2#E|-------------------------------------------------------------------------|
B|-------------------------------------------------------------------------|
G|-9-------11-------9---13-----------9-------11-------9---13---14----------|
D|-9---6---11---7---9---13---7---9---9---6---11---7---9---13---14---11---9-|
A|-7---6---9----7---7---11---7---9---7---6---9----7---7---11---12---11---9-|
E|-----4--------5------------5---7-------4--------5-----------------9----7-|#/6t2##/6t1#

#7t1#Ponte:
#7t2#E|-------------------------------------------------------------------------|
B|-------------------------------------------------------------------------|
G|-----9-----------9-------------------------------------------------------|
D|-7---9---9---7---9---9---6----7---9---10---7---9---2---------------------|
A|-7---7---9---7---7---9---6----7---9---10---7---9---2---------------------|
E|-5-------7---5-------7---4----5---7---8----5---7---0---------------------|#/7t2##/7t1#
Composição: Colaboração e revisão: Jean Sapia