busca

Lamens Terms

Lagwagon

Tom: C#m
Intro:
E|-------------------------------------------------------------------------|
B|-------------------------------------------------------------------------|
G|--9-----------4----------5-----------6-----8--------9--------------------|
D|--x-----------x----------x-----------x-----x--------x--------------------|
A|--7-----------2----------3-----------4-----6--------7--------------------|
E|-------------------------------------------------------------------------|

Verso 1:
E|-------------------------------------------------------------------------|
B|-------------------------------------------------------------------------|
G|--------------6----------------------------------------------------------|
D|--7---9---6---6---9---7---9----------------------------------------------|
A|--7---9---6---4---9---7---9----------------------------------------------|
E|--5---7---4-------7---5---7----------------------------------------------|

E|-------------------------------------------------------------------------|
B|-------------------------------------------------------------------------|
G|-------------------------------------------------------------------------|
D|--2---6---7---2---9---7---2----9---7---9---------------------------------|
A|--2---6---7---2---9---7---2----9---7---9---------------------------------|
E|--0---4---5---0---7---5---0----7---5---7---------------------------------|

Verso 2:
E|-------------------------------------------------------------------------|
B|-------------------------------------------------------------------------|
G|--------------6----------------------------------------------------------|
D|--7---9---6---6---9---7---9----------------------------------------------|
A|--7---9---6---4---9---7---9----------------------------------------------|
E|--5---7---4-------7---5---7----------------------------------------------|

E|-------------------------------------------------------------------------|
B|-------------------------------------------------------------------------|
G|---------------------6---------------------------------------------------|
D|-2---6---7---9---6---6---9---7---9---------------------------------------|
A|-2---6---7---9---6---4---9---7---9---------------------------------------|
E|-0---4---5---7---4-------7---5---7---------------------------------------|

Refrão:
E|-------------------------------------------------------------------------|
B|-------------------------------------------------------------------------|
G|-9-------11-------9---13-----------9-------11-------9---13---14----------|
D|-9---6---11---7---9---13---7---9---9---6---11---7---9---13---14---11---9-|
A|-7---6---9----7---7---11---7---9---7---6---9----7---7---11---12---11---9-|
E|-----4--------5------------5---7-------4--------5-----------------9----7-|

Ponte:
E|-------------------------------------------------------------------------|
B|-------------------------------------------------------------------------|
G|-----9-----------9-------------------------------------------------------|
D|-7---9---9---7---9---9---6----7---9---10---7---9---2---------------------|
A|-7---7---9---7---7---9---6----7---9---10---7---9---2---------------------|
E|-5-------7---5-------7---4----5---7---8----5---7---0---------------------|

Clipes

Cifra Club Pro

Aproveite o Cifra Club com benefícios exclusivos e sem anúncios
7 dias grátis
Cifra Club Pro
Aproveite o Cifra Club com benefícios exclusivos e sem anúncios
7 dias grátis