Razor Burn

Lagwagon

Tom: G
#1t1#

Intro
#1t2#e|-----------------------------------------------------------|
B|-----------------------------------------------------------|
G|--9-9-9-9-9/--9-9-9-9-9/--9-9-9-9-9/---------6-6-6---------|
D|--9-9-9-9-9/--9-9-9-9-9/--9-9-9-9-9/--7-7-7--6-6-6--9-9-9--| X2
A|--7-7-7-7-7/--7-7-7-7-7/--7-7-7-7-7/--7-7-7--4-4-4--9-9-9--|
E|--------------------------------------5-5-5---------7-7-7--|#/1t2##/1t1#


#2t1#Verse X2 ("She broke up with me.....”)
#2t2#e|------------------------------------------------------|
B|------------------------------------------------------|
G|--9-9-9-9-9-9---------------9-9-9-9-9-9---------------|
D|--9-9-9-9-9-9--9-9-9-9-9-9--9-9-9-9-9-9--7-7-7-7-7-7--|
A|--7-7-7-7-7-7--9-9-9-9-9-9--7-7-7-7-7-7--7-7-7-7-7-7--|
E|---------------7-7-7-7-7-7---------------5-5-5-5-5-5--|#/2t2##/2t1#

#3t1##3t2#e|---------------------------------------------------------------|
B|---------------------------------------------------------------|
G|-9-9-9-9-9-9---------------9-9-9-9-----------6-6-6-6-----------|
D|-9-9-9-9-9-9--9-9-9-9-9-9--9-9-9-9--7-7-7-7--6-6-6-6--9-9-9-9--|
A|-7-7-7-7-7-7--9-9-9-9-9-9--7-7-7-7--7-7-7-7--4-4-4-4--9-9-9-9--|
E|--------------7-7-7-7-7-7-----------5-5-5-5-----------7-7-7-7--|#/3t2##/3t1#


#4t1#Chorus ("On the night she left me.....”)
#4t2#e|-------------------|--------1st---------|-----2nd-----|
B|-------------------|--------------------|-------------|
G|--9-9-9-9----------|--------------------|-------------|
D|--9-9-9-9-4-4-4-4--|--7-7-7-7--9-9-9-9--|--7~--9-9-9--|
A|--7-7-7-7-4-4-4-4--|--7-7-7-7--9-9-9-9--|--7~--9-9-9--|
E|----------2-2-2-2--|--5-5-5-5--7-7-7-7--|--5~--7-7-7--|#/4t2##/4t1#


Intro

Verse ("I’ve heard it said she.....”)


#5t1#Bridge
#5t2#e|---------------------------------------------------|
B|---------------------------------------------------|
G|---------------------------------------------------|
D|--9-9-9-9--13-13-13-13--14-14-14-14--11-11--14-14--| X4
A|--7-7-7-7--11-11-11-11--12-12-12-12---9--9--12-12--|
E|---------------------------------------------------|#/5t2##/5t1#


#6t1#Outro
#6t2#e|------------------------------------------------------|
B|------------------------------------------------------|
G|--9-9-9-9-9-9---------------9-9-9-9-9-9---------------|
D|--9-9-9-9-9-9--9-9-9-9-9-9--9-9-9-9-9-9--7-7-7-7-7-7--|
A|--7-7-7-7-7-7--9-9-9-9-9-9--7-7-7-7-7-7--7-7-7-7-7-7--|
E|---------------7-7-7-7-7-7---------------5-5-5-5-5-5--|#/6t2##/6t1#

#7t1##7t2#e|--------------------------------------------------------------------|
B|--------------------------------------------------------------------|
G|--9-9-9-9-9-9---------------9-9-9---------9-9-9---------------------|
D|--9-9-9-9-9-9--9-9-9-9-9-9--9-9-9--7-7-7--9-9-9--7-7-7-7-7-7-7--9~--|
A|--7-7-7-7-7-7--9-9-9-9-9-9--7-7-7--7-7-7--7-7-7--7-7-7-7-7-7-7--9~--|
E|---------------7-7-7-7-7-7---------5-5-5---------5-5-5-5-5-5-5--7~--|#/7t2##/7t1#

#8t1##8t2#e|------5p4-0----7p5-0----5p4-0---12~--|
B|-------------------------------------|
G|--9~---------------------------------|
D|--9~---------------------------------|
A|--7~---------------------------------|
E|-------------------------------------|#/8t2##/8t1#
Composição: Colaboração e revisão: