busca

The Chemist

Lagwagon

Tom: G
G          A       Bm     G       A       Bm
One more time we become.  Masquerade under sun.
G       A        Bm    G           A        Bm
Passionless vacation. You're not telling anyone.
    G         A           Bm
   The sun falls in the whole
E|-----------3--------------------5---------------------------------------|
B|------------------3--------------------5------------0----------0------0-|
G|-----4----------4---------6----------6---------7----------7---------7---|
D|--5-----5-----5--------7-----7-----7--------9-----9----9-----9----9-----|
A|------------------------------------------------------------------------|
E|------------------------------------------------------------------------|

    G         A        Bm
   It's chemistry chemical
E|-----------3--------------------5---------------------------------------|
B|------------------3--------------------5------------0----------0------0-|
G|-----4----------4---------6----------6---------7----------7---------7---|
D|--5-----5-----5--------7-----7-----7--------9-----9----9-----9----9-----|
A|------------------------------------------------------------------------|
E|------------------------------------------------------------------------|

    G       A       Bm      C7
   Follow the pattern if you can
E|-----------3--------------------5---------------------------------------|
B|------------------3--------------------5------------0-------------0-----|
G|-----4----------4---------6----------6---------7----------9----9-----9--|
D|--5-----5-----5--------7-----7-----7--------9-----9----10---10----------|
A|------------------------------------------------------------------------|
E|------------------------------------------------------------------------|

    G         A                   D
   Stick around it will change again
E|-----------3--------------------5-----------2-0-2-----------------------|
B|------------------3--------------------5----3-3-3-----------------------|
G|-----4----------4---------6----------6------2-2-2-----------------------|
D|--5-----5-----5--------7-----7-----7------------------------------------|
E|------------------------------------------------------------------------|

G         A             Bm    G        A            Bm
One more line, stay focused.  Hollow quiet, I feel sick
G           A          Bm      C7     G      A          F#
Misunderstanding,ten feet tolerance. I'm not telling anyone
E            F#        G  A   Bm   G A   Bm   G  A  Bm  C7  G  A  D
You're not telling anyone
D             A          Bm     A       G  A
The sound is atrocious. The mouse horrific.
D                    F#m       Bm         A      G
I recognize those last words.  I'll hold on to mine
  G       A       Bm
  Lying out in the sun
E|-----------3--------------------5---------------------------------------|
B|------------------3--------------------5------------0----------0------0-|
G|-----4----------4---------6----------6---------7----------7---------7---|
D|--5-----5-----5--------7-----7-----7--------9-----9----9-----9----9-----|
A|------------------------------------------------------------------------|
E|------------------------------------------------------------------------|

   G        A        Bm
   Keep it like a secret
E|-----------3--------------------5---------------------------------------|
B|------------------3--------------------5------------0----------0------0-|
G|-----4----------4---------6----------6---------7----------7---------7---|
D|--5-----5-----5--------7-----7-----7--------9-----9----9-----9----9-----|
A|------------------------------------------------------------------------|
E|------------------------------------------------------------------------|

   G         A              Bm         C7
   Elements in the pool were all dried up and
E|-----------3--------------------5---------------------------------------|
B|------------------3--------------------5------------0-------------0-----|
G|-----4----------4---------6----------6---------7----------9----9-----9--|
D|--5-----5-----5--------7-----7-----7--------9-----9----10---10----------|
A|------------------------------------------------------------------------|
E|------------------------------------------------------------------------|

   G       A         D     D7/F#
   Here comes the chemist again
E|--------3------------------5------------------2---------------------------|
B|---------------3------------------5------------------3----------1------1--|
G|---4---------4-------6----------6-------2----------2-------2---------2----|
D|5-----5----5------7-----7-----7------0-----0-----0------0-----0----0------|
A|--------------------------------------------------------------------------|
E|--------------------------------------------------------------------------|

G         D          C
This is everything I am...

Clipes

Cifra Club Pro

Aproveite o Cifra Club com benefícios exclusivos e sem anúncios
7 dias grátis
Cifra Club Pro
Aproveite o Cifra Club com benefícios exclusivos e sem anúncios
7 dias grátis