busca

The Worst

Lagwagon

Tom: G
Intro:

(Guitarra 1)
E|------------------------------------------|
B|------------------------------------------|
G|--4------4------4------4------5-----------|
D|--5------5------5------5------5-----------|
A|--7*-----6*-----5*-----4*-----3*----------|
E|------------------------------------------|
(Guitarra 2)
E|------------10-----------------10-----------------10---------------3---5---3-----------|
B|-------12-------12-------12-------12-------12-------12-------5-------------------------|
G|--12-----------------11-----------------10---------------------------------------------|
D|---------------------------------------------------------------------------------------|
A|---------------------------------------------------------------------------------------|
E|---------------------------------------------------------------------------------------|

Verso:
      Em                                           C
E|--------------------------------------------------------------------------------|
B|--------------------------------------------------------------------------------|
G|--------------------------------------------------------------------------------|
D|---7---7---7--7--7----5----5----5----5-----7---7---7--7--7-----5--5--5--5-------|
A|---7---7---7--7--7----7----7----7----7-----7---7---7--7--7-----7--7--7--7-------|
E|------------------------------------------------8---8---8--8--8-----8--8--8--8--|
       D                                               Bm
E|----------------------------------------------------------------------------------------|
B|----------------------------------------------------------------------------------------|
G|----------------------------------------------------------------------------------------|
D|----7---7---7--7--7--7----5---5---5---5-------------------------------------------------|
A|----5---5---5--5--5--5----5---5---5---5--------9---9--9--9--9----10--10---10---9--------|
E|----------------------------------------------------7---7--7--7--7----7----7----7----7--|

Refrão: G  F#/G  Em  D  C

Clipes

Cifra Club Pro

Aproveite o Cifra Club com benefícios exclusivos e sem anúncios
Cifra Club Pro
Aproveite o Cifra Club com benefícios exclusivos e sem anúncios