The Worst

Lagwagon

Bm
234
X24432
C
123
X32010
D
123
XX0232
Em
12
022000
F#/G
1234
XX5676
G
123
320003
Tom: G
Intro:

#1t1#(Guitarra 1)
#1t2#E|------------------------------------------|
B|------------------------------------------|
G|--4------4------4------4------5-----------|
D|--5------5------5------5------5-----------|
A|--7*-----6*-----5*-----4*-----3*----------|
E|------------------------------------------|#/1t2##/1t1#
#2t1#(Guitarra 2)
#2t2#E|------------10-----------------10-----------------10---------------3---5---3-----------|
B|-------12-------12-------12-------12-------12-------12-------5-------------------------|
G|--12-----------------11-----------------10---------------------------------------------|
D|---------------------------------------------------------------------------------------|
A|---------------------------------------------------------------------------------------|
E|---------------------------------------------------------------------------------------|#/2t2##/2t1#

#3t1#Verso:
      Em                                           C
#3t2#E|--------------------------------------------------------------------------------|
B|--------------------------------------------------------------------------------|
G|--------------------------------------------------------------------------------|
D|---7---7---7--7--7----5----5----5----5-----7---7---7--7--7-----5--5--5--5-------|
A|---7---7---7--7--7----7----7----7----7-----7---7---7--7--7-----7--7--7--7-------|
E|------------------------------------------------8---8---8--8--8-----8--8--8--8--|#/3t2##/3t1#
#4t1#       D                                               Bm
#4t2#E|----------------------------------------------------------------------------------------|
B|----------------------------------------------------------------------------------------|
G|----------------------------------------------------------------------------------------|
D|----7---7---7--7--7--7----5---5---5---5-------------------------------------------------|
A|----5---5---5--5--5--5----5---5---5---5--------9---9--9--9--9----10--10---10---9--------|
E|----------------------------------------------------7---7--7--7--7----7----7----7----7--|#/4t2##/4t1#

Refrão: G  F#/G  Em  D  C
Composição: Colaboração e revisão: Jean Sapia