busca

Laundry Room

Nirvana

Tom: D
Essa musica foi composta por Kurt Cobain, e saiu em uma compilação
 chamada No Alternative.
nesse disco nao consta o nome dessa musica, ela fica escondida no 
final como faixa surpresa.


A musica começa com esses acordes:


      D    Bb   G     A    Bb   C
|---55555--11--333--55555--11--333---|
|---55555--11--333--55555--11--333---|
|---77777--33--444--44444--33--555---|
|---77777--33--555--77777--33--555---|
|---55555--11--555--77777--11--333---|
|---55555--11--333--55555--11--333---|

“And if you save yourself 
You will make him happy”



Agora entra a distorção:

      D    Bb   G     A     Bb   C
|-------------------------------------|
|-------------------------------------|
|---77777--33--------------333--555---|   repete 3x 
|---77777--33--555--77777--333--555---|   até entrar o refrão.
|---55555--11--555--77777--111--333---|
|--------------333--55555-------------|


Refrão:
      D       Bb     G      Bb     G      Bb     G      Bb     A
|-------------------------------------------------------------0-------|
|-------------------------------------------------------------0-------|
|---77777---33333---------33333---------33333---------333333--2-(4)---|
|---77777---33333--55555--33333--55555--33333--55555--333333--2-(7)---|
|---55555---11111--55555--11111--55555--11111--55555--111111--0-(7)---|
|------------------33333---------33333---------33333----------0-(5)---|

“..nooow...... You're in a laundry room”



Agora volta os mesmos acordes do começo da musica sem distorção:


      D    Bb   G     A    Bb   C
|---55555--11--333--55555--11--333---|
|---55555--11--333--55555--11--333---|
|---77777--33--444--44444--33--555---|
|---77777--33--555--77777--33--555---|
|---55555--11--555--77777--11--333---|
|---55555--11--333--55555--11--333---|

“And if you guard yourself 
You will think you're happy.........”


Agora vem o refrão com distorção:

      D       Bb     G      Bb     G      Bb     G      Bb     A
|-------------------------------------------------------------0-------|
|-------------------------------------------------------------0-------|
|---77777---33333---------33333---------33333---------333333--2-(4)---|
|---77777---33333--55555--33333--55555--33333--55555--333333--2-(7)---|
|---55555---11111--55555--11111--55555--11111--55555--111111--0-(7)---|
|------------------33333---------33333---------33333----------0-(5)---|

“..nooow...... You're in a laundry room”


Depois desse refrão vem o solo:

|--------------------------------------------------------------
|--------------------------------------------------------------
|--------------------------------------------------------------
|------3--5/7--7/10--10/12--12--12/14--14--14--14-14b-14--14---
|-3h5----------------------------------------------------------
|--------------------------------------------------------------

--------------------------------------------------------------------
--------------------------------------------------------------------
--------------------------------------------------------------------
--12--14-14b-14p-14p-14p--12----------------------------------------
--------------------------------------------------------------------
------------------------------7p-7p-7pr-5--3--3--1--3--4--3--1--1h3-

------------------------------------------------------------
------------------------------------------------------------
------------------------------------------------------------
------------------------------------------------------------
----------------------------------------------------12-14---
--3--3/5--5--5h7--7/8--8/10--10/12--12--13p12--10-----------

---------------------------------------------------------------
---------------------------------------------------------------
---------------------------------------------------------------
--------------------15--17--17--15-17b-17--15--12--12--14-14b--
--14/15--14/17--17---------------------------------------------
---------------------------------------------------------------

-------------------------------------------------------------
-------------------------------------------------------------
-------------------------------------------------------------
--14b-14--12--12--10--12--12--12--12--12--14--14/15--15--14--
-------------------------------------------------------------
-------------------------------------------------------------

-------------------------------------------------------------------|
-------------------------------------------------------------------|
-------------------------------------------------------------------|
--14h15p15--12--12h14--14--14p12--12--1210--109--97--75--53---|
-------------------------------------------------------------------|
-------------------------------------------------------------------|



Depois do solo, o refrão!

      D       Bb     G      Bb     G      Bb     G      Bb     A
|-------------------------------------------------------------0-------|
|-------------------------------------------------------------0-------|
|---77777---33333---------33333---------33333---------333333--2-(4)---|
|---77777---33333--55555--33333--55555--33333--55555--333333--2-(7)---|
|---55555---11111--55555--11111--55555--11111--55555--111111--0-(7)---|
|------------------33333---------33333---------33333----------0-(5)---|

“..nooow...... You're in a laundry room”


Agora os acordes sem distorção do começo da musica...


      D    Bb   G     A    Bb   C
|---55555--11--333--55555--11--333---|
|---55555--11--333--55555--11--333---|
|---77777--33--444--44444--33--555---|
|---77777--33--555--77777--33--555---|
|---55555--11--555--77777--11--333---|
|---55555--11--333--55555--11--333---|

“And if you fool yourself 
You will make him happy.....”


Novamente essa parte:

      D    Bb   G     A     Bb   C
|-------------------------------------|
|-------------------------------------|
|---77777--33--------------333--555---|    
|---77777--33--555--77777--333--555---|    
|---55555--11--555--77777--111--333---|
|--------------333--55555-------------|

Repete 3x... 
até entrar o refrão novamente:

      D       Bb     G      Bb     G      Bb     G      Bb  
|-----------------------------------------------------------------
|-----------------------------------------------------------------
|---77777---33333---------33333---------33333---------33333-------
|---77777---33333--55555--33333--55555--33333--55555--33333-------
|---55555---11111--55555--11111--55555--11111--55555--11111-------
|------------------33333---------33333---------33333--------------

-----------------0------------|
-----------------0------------|
---------333333--2-(4)--------|
--55555--333333--2-(7)--------|
--55555--111111--0-(7)--------|
--33333----------0-(5)--------|

Essa ultima parte ele toca  os 2 ultimos acordes (G / Bb) uma vez a mais.



**************************************************************


               Verse Chorus Verse
                  (K. Cobain)


And if you save yourself 
You will make him happy 
He'll keep you in a jar 
And you'll think you're happy 
He'll give you breathing holes 
And you'll think you're happy 
He'll cover you with dust 
And you'll think you're happy now 

You're in a laundry room 
You're in a laundry room 
The clue that came to you, oh 

And if you guard yourself 
You will think you're happy 
He'll keep you in a jar 
Then you'll make him happy 
He'll give you breathing holes 
Then you'll think you're happy 
He'll cover you with dust 
Then you'll think you're happy now 

You're in a laundry room 
You're in a laundry room 
The clue that came to you, oh 

You're in a laundry room 
You're in a laundry room 
The clue that came to you, oh 

And if you fool yourself 
You will make him happy 
He'll keep you in a jar 
Then you'll think you're happy 
He'll give you breathing holes 
Then you will seem happy 
You'll wallow in the shit 
Then you'll think you're happy now 

You're in a laundry room 
You're in a laundry room 
You're in a laundry room 
The clue that came to you, oh 

Clipes

Cifra Club Pro

Aproveite o Cifra Club com benefícios exclusivos e sem anúncios
Cifra Club Pro
Aproveite o Cifra Club com benefícios exclusivos e sem anúncios