------------------0-----------| / ------------------2-----------| / --8----" /> ------------------0-----------| / ------------------2-----------| / --8----">
busca

Marigold

Nirvana

Tom: Cm
[Intro]

|--------------------------------|
|--------------------------------|
|--------------------------------|
|--1-1---------------------------|
|-----3-3-3-1-1-2-2-2------------|
|--------------------------------|

[Verso]

     D#      C     Bb      B
|-6-6---3-3-3---1-1---2-2-2--------|
|-6-6---3-3-3---1-1---2-2-2--------|
|-8-8---5-5-5---3-3---4-4-4--------|
|-8-8---5-5-5---3-3---4-4-4--------|
|-6-6---3-3-3---1-1---2-2-2--------|
|-6-6---3-3-3---1-1---2-2-2--------|

He's there in case I wandered off


[Refrão]

     F#     G#
|---------------------------|
|---------------------------|
|-3-------5-----------------|
|-4-------6-----------------|
|-4-------6-----------------|
|-2-------4-----------------|

All in all the clock is slow

     D#      C
------------------0-----------|
------------------2-----------|
--8-------5-------4-----------|
--8-[8X]--5-[8X]--4--[16X]----|
--6-------3-------0-----------|
------------------------------|

Six colour pictures all in a row of a marigold

      D#
|--6--|
|--6--|
|--8--|
|--8--|
|--6--|
|--6--|

Clipes