busca

Fuck Authority

Pennywise

Tom: F
Note: Rhythm is not exact.

* = palm muted
( ) = don´t play second time, change picking

Intro (A)
e|-----------------------------------------------------------------|
B|-----------------------------------------------------------------|
G|---------------------------5-------------------------------------|
D|-5-5--5-5-5--5-5-5--5-5-5--5-(5)-8-8--8-8-8--8-8-8--8-8-8--7-(7)-|
A|-5-5--5-5-5--5-5-5--5-5-5--3-(5)-8-8--8-8-8--8-8-8--8-8-8--7-(7)-|
E|-3-3--3-3-3--3-3-3--3-3-3----(3)-6-6--6-6-6--6-6-6--6-6-6--5-(5)-|

e|----------------------------------------------------|
B|----------------------------------------------------|
G|---------------------------5-----------------8--10--|
D|-3-3--3-3-3--3-3-3--3-3-3--5--5-5--5-5-5-(5)-8--10--|
A|-3-3--3-3-3--3-3-3--3-3-3--3--5-5--5-5-5-(5)-6--8---|
E|-1-1--1-1-1--1-1-1--1-1-1-----3-3--3-3-3-(3)--------|

Verse (B)                                                           
e|----------------------------------------------------------------------------|
B|---------------------------------------------------------------------->-->--|
G|-*-*-*-*-*-*-*--5----*-*-*-*-*-*-------*-*-*-*-*-*--5----*-*-*-*-*-*--8--10-|
D|-5-5-5-5-5-5-5--5--8-8-8-8-8-8-8--7--3-3-3-3-3-3-3--5--5-5-5-5-5-5-5--8--10-|
A|-5-5-5-5-5-5-5--3--8-8-8-8-8-8-8--7--3-3-3-3-3-3-3--3--5-5-5-5-5-5-5--6--8--|
E|-3-3-3-3-3-3-3-----6-6-6-6-6-6-6--5--1-1-1-1-1-1-1-----3-3-3-3-3-3-3--------|

on the second time just change the picking and the palm mute technique and leave
out the marked notes (>). Instead of them play the G Powerchord more often.

Pre-Chorus (C)
e|------------------------------------------------------------------------|
B|----------------------------------------*-*-*-*-*-*-*-------------------|
G|----*-*-*-*-*-*-*-----*-*-*-*-*-*-*--5--5-5-5-5-5-5-5-----*-*-*-*-*-*-*-|
D|-5--5-5-5-5-5-5-5--8--8-8-8-8-8-8-8--5--5-5-5-5-5-5-5--5--5-5-5-5-5-5-5-|
A|-5--5-5-5-5-5-5-5--8--8-8-8-8-8-8-8--3--3-3-3-3-3-3-3--5--5-5-5-5-5-5-5-|
E|-3--3-3-3-3-3-3-3--6--6-6-6-6-6-6-6--------------------3--3-3-3-3-3-3-3-|

Chorus (D)                               Part Before Chorus-Ending (E)
e|------------------------------------| |-------------------------------------|
B|------------------------------------| |-------------------------------------|
G|-------------------5-5-5-5----------| |-------------------5-5-5-5-5-5-5-5-5-|
D|-5-5-5-5--8-8-8-8--5-5-5-5--5-5-5-5-| |-5-5-5-5--8-8-8-8--5-5-5-5-5-5-5-5-5-|
A|-5-5-5-5--8-8-8-8--3-3-3-3--5-5-5-5-| |-5-5-5-5--8-8-8-8--3-3-3-3-3-3-3-3-3-|
E|-3-3-3-3--6-6-6-6-----------3-3-3-3-| |-3-3-3-3--6-6-6-6--------------------|

Chorus Ending (F)
e|-------------------------------------------------------|
B|-------------------------------------------------------|
G|--------------10--8-8-8-8-----------10-10-10-10--------|
D|-3--8--5-5-5--10--8-8-8-8--5-5-5-5--10-10-10-10--5-5-5-|
A|-3--8--5-5-5--8---6-6-6-6--5-5-5-5--8--8--8--8---5-5-5-|
E|-1--6--3-3-3---------------3-3-3-3---------------3-3-3-|

e|--------------------------------------|
B|--------------------------------------|
G|-10--8-8-8-8--------------------------|
D|-10--8-8-8-8--3--8--5-5-5-5-5-5-5-5-5-|
A|-8---6-6-6-6--3--8--5-5-5-5-5-5-5-5-5-|
E|--------------1--6--3-3-3-3-3-3-3-3-3-|

Bridge (G)
e|------------------------------------------------|
B|------------------------------------------------|
G|------------------------------------------------|
D|-3--8--5-5-5-5-5-5-5-5--12-12-12-12-12-12-12-12-|
A|-3--8--5-5-5-5-5-5-5-5--10-10-10-10-10-10-10-10-|
E|-1--6--3-3-3-3-3-3-3-3--------------------------|

e|----------------2times------------------|
B|----------------------------------------|
G|-8-8-8-8-------5-5----------------------|
D|-8-8-8-8--8-8--5-5--5-x-x-x-x-5-5-5-5-5-|
A|-6-6-6-6--8-8--3-3--5-x-x-x-x-5-5-5-5-5-|
E|----------6-6-------3-x-x-x-x-3-3-3-3-3-|

e|-------------------------------------------------------------|
B|-------------------------------------------------------------|
G|-8-8-8-8--10-10-10---------5-----------8-8-8-8--10-10--8--10-|
D|-8-8-8-8--10-10-10--8-8-8--5--5-5-5-5--8-8-8-8--10-10--8--10-|
A|-6-6-6-6--8--8--8---8-8-8--3--5-5-5-5--6-6-6-6--8--8---6--8--|
E|--------------------6-6-6-----3-3-3-3------------------------|

e|----------------------------|
B|----------------------------|
G|----------------------------|
D|-12-12-12-12-12-12-12-12-12-|
A|-10-10-10-10-10-10-10-10-10-|
E|----------------------------|

Song Structure:

(A)  2times
(B)  2times
(C)  2times, end with pickslide
(D)
(E)
(F) end with pickslide
(B) 2times
(C) 2times, end with pickslide
(D) 3times
(E)
(G)
Bass Part, guitar comes in with C
(D)
(E)
(F)

Clipes

Cifra Club Pro

Aproveite o Cifra Club com benefícios exclusivos e sem anúncios
7 dias grátis
Cifra Club Pro
Aproveite o Cifra Club com benefícios exclusivos e sem anúncios
7 dias grátis