busca

Victim realety

Pennywise

Tom: G#
BY: felipe
E|-----------------|------------------|-----|
B|-----------------|------------------|-----|
G|-----6-6---------|-----6-6-------10-|---8-|
D|-8-8-6-6-6\7\6-3-|-8-8-6-6-6\7\6-10-|-6-8-|INTRO
A|-8-8-4-4-6\7\6-3-|-8-8-4-4-6\7\6-8--|-6-6-|first part 1x - second part 1x
E|-6-6-----4\5\4-1-|-6-6-----4\5\4----|-4---|first again - then third part

E|-------------------|-----------|
B|-------------------|-----------|
G|---6-------6-8-10--|-----------|
D|-8-6-6-3-8-6-8-10--|--same-----|verse
A|-8-4-6-3-8-4-6-8---|---as------|first part 2x
E|-6---4-1-6---------|--intro----|second 2xp.m~~~~~~~~~~~~~~~~~~

E|-------------------------|
B|-------------------------|
G|-------------------------|little insert
D|-------------------------|riff
A|-0-2p0-4p0-1p0-----------|(not sure about)
E|-------------------------|

E|----------------------|
B|----------------------|
G|---6-------6-8---5-8--|
D|-3-6-6-8-3-6-8-8-5-8--|chorus
A|-3-4-6-8-3-4-6-8-3-6--|
E|-1---4-6-1-----6------|

here's that solo:
E|----------------------------------------------------------------------------------------------|
B|----------------------------------------------------------------------------------------------|
G|---------8--------------------------------------------------------8---------------------------|
D|-8-10-11---11-10-11-10-8-10-8-6-8-10-11-8-11-10-11-10-8-6-8-10-11---11-10-11-10-8-10-15-17-13-|
A|----------------------------------------------------------------------------------------------|
E|----------------------------------------------------------------------------------------------|
E|-----------------------------------------|
B|-----------------------------------------|
G|--------8--------------------------------|
D|8-10-11---11-10-11-10-8-10-15-17-13------|
A|-----------------------------------------|
E|-----------------------------------------|Later!

Clipes