busca

Search And Destroy

Red Hot Chili Peppers

Tom: G#
Riff 1 (intro)
  C#                             F#         E#        
  let ring--------|
|--------------------------------2---2--2---0-----------|
|--------------------6--6---6----2---2--2---0-----------|
|--------------------6--6---6----3---3--3---1-----------|
|--------------------6--6---6----4---4--4---2-----------|
|-4------------------4--4---4----4---4--4---2-----------|
|--------------------------------2---2--2---0-----------|

This goes to riff 2 where it's a solo part.

Riff 2 (come to think of it this part seems way off... It'll give 
you a base though)

|--------------------------------------------------------|
|---------6--8b(8)--6---8---10---6--10p8p6---8-----------|
|------7-------------------------------------------------|
|--------------------------------------------------------|
|--------------------------------------------------------|
|--------------------------------------------------------|

Rythem Guitar
     C#5             A5
     P.M.------------------------|
|------------------------------------------------------2--2--2--0-------|
|---------------------------------------6--6---6--6----2--2--2--0-------|
|----6--6--6---6----2--2--2--2--2-------6--6---6--6----3--3--3--1-------|
|----6--6--6---6----2--2--2--2--2-------6--6---6--6----4--4--4--2-------|
|----4--4--4---4----0--0--0--0--0-------4--4---4--4----4--4--4--2-------|
|------------------------------------------------------2--2--2--0-------|

Riff 3 (W/ rythem guitar in backround)

|--9---7----9----12---9----14---14p12p9---9----14----12----------------|
|----------------------------------------------------------------------|
|----------------------------------------------------------------------|
|----------------------------------------------------------------------|
|----------------------------------------------------------------------|
|----------------------------------------------------------------------|

Verse Riff(timing is off cause I wanted to make more space)
    C#             A              C#         F#       E 
    P.M.-----|   P.M.------|
|--------------------------------------------2--2--2--0------------------|
|---6-6--6-6---6---2-2--2-2---2---6--6--6----2--2--2--0------------------|
|---6-6--6-6---6---2-2--2-2---2---6--6--6----3--3--3--1------------------|
|---6-6--6-6---6---2-2--2-2---2---6--6--6----4--4--4--2------------------|
|---4-4--4-4---4---0-0--0-0---0---4--4--4----4--4--4--2------------------|
|--------------------------------------------2--2--2--0------------------|

Chorus Riff(Right chords wrong pattern maybe... experiment)
   C#          B          A             B 
|-------------------------------------------------------------------------|
|--6---6--6----4---4--4---2--2--2--2----4--4------------------------------|
|--6---6--6----4---4--4---2--2--2--2----4--4------------------------------|
|--6---6--6----4---4--4---2--2--2--2----4--4------------------------------|
|--4---4--4----2---2--2---0--0--0--0----2--2------------------------------|
|-------------------------------------------------------------------------|


Part After Chorus (Is it a Bridge ...I can't tell)
   F5   F#5          F5   F#5                     A5
|--------------------------------------------------------------------------|
|--------------------------------------------------------------------------|
|--------------------------------------------------------------------------|
|--3-/--4--4--4--4----3/--4--4-------------------7--7--7--7---7--7---------|
|--3-/--4--4--4--4----3/--4--4---------2---4--/--7--7--7--7---7--7---------|
|--1-/--2--2--2--2----1/--2--2--2---4------------5--5--5--5---5--5--5---7--|

           E5                            G#5
|---------------------------------------------------------------|
|---------------------------------------------------------------|
|---------------------------------------------------------------|
|----------2-2--2-2--2-2-----------------6-6--6-6--6-6----------|
|-5---7----2-2--2-2--2-2--------0---2----6-6--6-6--6-6----------|
|----------0-0--0-0--0-0--0--2-----------4-4--4-4--4-4----------|



A letra da música para não se perder!

   SEARCH AND DESTROY


I'm a street walking cheetah with a heart full of napalm
I'm a runaway son of the nuclear A-bomb
I am a world's forgotten boy
the one who searches and destroys

honey, gotta help me please
somebody gotta save my soul
baby, detonate for me

look out honey, 'cause I'm using technology
ain't got time to make no apology
soul radiation in the dead of night
love in the middle of a fire fight

honey, gotta strike me blind
somebody gotta save my soul
baby, penerate my mind

and I'm the world's forgotten boy
the one who's searchin', searchin' to destroy
and honey I'm the world's forgotten boyt
the one who's searchin', searchin' to destroy

forgotten boy, forgotten boy
forgotten boy said hey forgotten boy

Clipes