busca

Smells Like Teen Spirit

Red Hot Chili Peppers

Tom: D
Main line:                                        Riff:     
 2x w/o distortion.                                repeat as   
 4x with distortion + chorus)                      desired. . .
 e|------------------------------------------       ---1------  
 a|------------------------------------------       -1--------  
 d|-------------3-3------------------6-6-----       ----------  
 g|--3-3-3-xxxx-3-3---5---6-6-6-xxxx-6-6--5--       ----------  
 b|--3-3-3-xxxx-1-1---5---6-6-6-xxxx-4-4--5--       ----------  
 E|--1-1-1-xxxx-------3---4-4-4-xxxx------3--       ----------  

Break:

E|-------------------------------------------------------------------|
B|-------------------------------------------------------------------|
G|------------4^fb----------------------------------4^fb-------------|
D|-3-3--4-4-----------3-3---77-7---55-5--3-3--4-4--------------------|
A|-3-3--4-4-----------3-3---77-7---55-5--3-3--4-4--------------------|
E|-1-1--2-2-----------1-1---55-5---33-3--1-1--2-2--------------------|


"Solo":  2x. . .                                          
 e|-------------------------------------------------------
 a|--1--4--4s6-----4b6b4--2--1--2--1----------------------
 d|-------------1---------------------3--1--3b5b3--1--0--- 
 g|-------------------------------------------------------
 b|-------------------------------------------------------
 E|-------------------------------------------------------
                       
 . . .to 4x:        
 e|--------------------------------
 a|--------------------------------
 d|---1-0---1-0---1-0---1p0--------
 g|---------------------------3----
 b|--------------------------------
 E|--------------------------------

Lyrics:

Load up on guns, bring your friends      
It's fun to lose, and to pretend          
She's over bored, and self assured
Oh, no, I know a dirty word

        chorus:

        hello, hello, hello, how long?. . .hello, hello, hello, how long?
        hello, hello, hello, how long?. . .hello, hello, hello, how long?

        With the lights out it's less dangerous
        Here we are now, entertain us
        I feel stupid and contagious
        Here we are now, entertain us.
        A mulatto, an albino, a mosquito, my libido, Yea!

I'm worse at what I do best,        
and for this gift I feel blessed.   
I met a group that's always been    
And always will until the end.      

        chorus, solo

And I forget, just what the taste    
And yes I guess it makes me smile    
I found it hard. . .Its hard to find 
Oh well, whatever, nevermind

Clipes