busca

Party On Your Pussy

Red Hot Chili Peppers

Tom: A
-==Cifra==-

D7#9
Well my lady lady, she lives three houses away
she claims that she can hear my baby screaming to me
"Fuck me Anthony, well Anthony"

D5        C5 A5         D5      C5  A5
I want to party on your pussy, baby
D5        C5 A5     D5            C5 A5    
I want to party on, party on your pussy
D5        C5 A5         D5      C5  A5
I want to party on your pussy, baby
D5        C5 A5         D5      C5     A5
I want to party on your pussy, yeah, yeah, yeah

D7#9
Struck by lust in a telephone booth
busted by a cop, he said "That's uncouth"
he said that he can hear my baby screeming to me
"Fuck me Anthony, well Anthony"

(Chords as above)
I want to party on your pussy, baby
I want to party on, party on your pussy
I want to party on your pussy, baby
I want to party on your pussy, yeah, yeah, yeah

(Sing!)
I want to party on your pussy, baby
I want to party on your pussy
I want to party on your pussy, baby
I want to party on your pussy

(Same as above but these chords played 2 semitones higher.)
E5        D5 B5         E5      D5  B5...
I want to party on your pussy, baby
I want to party on your pussy
I want to party on your little pussy, girl
I want to party on your pussy

Interlude,D5:   (if you're interested,Anthony M.'s version has it.And that's very good anyway.)

Let me shine your diamond the girl got a scratch
slap that cat have mercy

D5        C5 A5         D5      C5  A5...
I want to party on your pussy, baby
I want to party on, party on your pussy
I want to party on your pussy, baby
I want to party on your pussy, yeah, yeah, yeah

Termina com D5
--------------------------

Chords:

C5:  x355xx
D5:  x577xx
D7#9:x5456x
E5:  0799xx
A5:  577xxx
B5:  799xxx

-==tablatura==-
Verso e intro:

     Gtr. 1
e-|--------------------------|--------------------------|-
B-|--6--6--------6--6--------|--6--6--------6--6--------|-
G-|--5--5--------5--5--------|--5--5--------5--5--------|-
D-|--4--4--------4--4--------|--4--4--------4--4--------|-
A-|--5--5--------5--5--------|--5--5--------5--5--------|-
E-|--------------------------|--------------------------|-


e-|--------------------------|--------------------------|-
B-|--6--6--------6--6--------|--6--6--------6--6--------|-
G-|--5--5--------5--5--------|--5--5--------5--5--------|-
D-|--4--4--------4--4--------|--4--4--------4--4--------|-
A-|--5--5--------5--5--------|--5--5--------5--5--------|-
E-|--------------------------|--------------------------|-


e-|--------------------------|--------------------------|-
B-|--6--6--------6--6--------|--6--6--------6--6--------|-
G-|--5--5--------5--5--------|--5--5--------5--5--------|-
D-|--4--4--------4--4--------|--4--4--------4--4--------|-
A-|--5--5--------5--5--------|--5--5--------5--5--------|-
E-|--------------------------|--------------------------|-


e-|--------------------------|--------------------------|-
B-|--6--6--------6--6--------|--6--6--------6--6--------|-
G-|--5--5--------5--5--------|--5--5--------5--5--------|-
D-|--4--4--------4--4--------|--4--4--------4--4--------|-
A-|--5--5--------5--5--------|--5--5--------5--5--------|-
E-|--------------------------|--------------------------|-


     Gtr. 2
e-|---------------------------------|-----------------------------|-
B-|---------------------------------|-----------------------------|-
G-|---------------------------------|---------------------4-5-----|-
D-|---------------------------------|-----------------3-5---------|-
A-|--5-5-5-5----5-3--------5-3------|--5-3--------3-5----------3--|-
E-|-----------------5-3--------5----|------3-1--------------------|-


e-|---------------------------------|-------------------------------|-
B-|---------------------------------|-------------------------------|-
G-|---------------------------------|-------------------------------|-
D-|---------------------------------|-------------------------------|-
A-|--5-5-5-5----5-3--------5-3------|--5-3----------2-3-2-3---------|-
E-|-----------------5-3--------5----|------3-1--1-3------------1----|-

   
e-|---------------------------------|-----------------------------|-
B-|---------------------------------|-----------------------------|-
G-|---------------------------------|-----------------------------|-
D-|---------------------------------|-----------------------------|-
A-|--5-5-5-5----5-3--------5-3------|--5-3------------2--2--3--3--|-
E-|-----------------5-3--------5----|------3-1--------------------|-


e-|---------------------------------|------------------------------|-
B-|---------------------------------|------------------------------|-
G-|---------------------------------|------------------------------|-
D-|---------------------------------|------------------------------|-
A-|--5-5-5-5----5-3--------5-3------|--5-3------------x-2--3--4----|-
E-|-----------------5-3--------5----|------3-1---------------------|-



Refrão 1 & 2:

       w/variations
e-|----5--5--x-x-x-5--5--x-4/5--|----5--5--x-x--------------------------|-
B-|----5--5--x-x-x-5--5--x-4/5--|----5--5--x-x----)---------------------|-
G-|----5--5--x-x-x-5--5--x-4/5--|----5--5--x-x--12-----10-----------10--|-
D-|----4--4---------------------|----4--4--------------------10h12------|-
A-|----5--5---------------------|----5--5-------------------------------|-
E-|-----------------------------|---------------------------------------|-


e-|----5--5--x-x-x-5--5--x-4/5--|----5--5--x-x--13-13-13-13-13-13-13-----|-
B-|----5--5--x-x-x-5--5--x-4/5--|----5--5--x-x--13-13-13-13-13-13-13-12--|-
G-|----5--5--x-x-x-5--5--x-4/5--|----5--5--x-x--10-10-10-10-10-10-10-12--|-
D-|----4--4---------------------|----4--4-------10-10-10-10-10-10-10-12--|-
A-|----5--5---------------------|----5--5--------------------------------|-
E-|-----------------------------|----------------------------------------|-



Refrão 3:

       w/variations
e-|----7--7--x-x-x-7--7--x-6/7--|----7--7--x-x--15-15-15-15-15-15-15-----|-
B-|----7--7--x-x-x-7--7--x-6/7--|----7--7--x-x--15-15-15-15-15-15-15-14--|-
G-|----7--7--x-x-x-7--7--x-6/7--|----7--7--x-x--12-12-12-12-12-12-12-14--|-
D-|----6--6---------------------|----6--6-------12-12-12-12-12-12-12-14--|-
A-|----7--7---------------------|----7--7--------------------------------|-
E-|-----------------------------|----------------------------------------|-


e-|----7--7--x-x-x-7--7--x-6/7--|----7--7--x-x---------------------------|-
B-|----7--7--x-x-x-7--7--x-6/7--|----7--7--x-x----)---------)----------|-
G-|----7--7--x-x-x-7--7--x-6/7--|----7--7--x-x--14--p12-----14-p12-------|-
D-|----6--6---------------------|----6--6---------------14---------14----|-
A-|----7--7---------------------|----7--7--------------------------------|-
E-|-----------------------------|----------------------------------------|-



Interlude:


e-|---------------------------------|------------------------------|-
B-|---------------------------------|------------------------------|-
G-|---------------------------------|------------------------------|-
D-|--7--5---5-----------------------|------------------------------|-
A-|-------7---7-5-7----5-3-5-3---3--|--(3)-------------------------|-
E-|----------------------------5----|-------5-3-5-5----------------|-

e-|---------------------------------|------------------------------|-
B-|---------------------------------|------------------------------|-
G-|---------------------------------|------------------------------|-
D-|--7--5---5-----------------------|------------------------------|-
A-|-------7---7-5-7----5-3-5-3---3--|--(3)-------------------------|-
E-|----------------------------5----|-------5-3-5-5----------------|-

e-|---------------------------------|------------------------------|-
B-|---------------------------------|------------------------------|-
G-|---------------------------------|------------------------------|-
D-|--7--5---5-----------------------|------------------------------|-
A-|-------7---7-5-7----5-3-5-3---3--|--(3)-------------------------|-
E-|----------------------------5----|-------5-3-5-5----------------|-

e-|---------------------------------|------------------------------|-
B-|---------------------------------|------------------------------|-
G-|---------------------------------|------------------------------|-
D-|--7--5---5-----------------------|------------------------------|-
A-|-------7---7-5-7----5-3-5-3---3--|--(3)-------------------------|-
E-|----------------------------5----|-------5-3-5-5----------------|-

Clipes

Cifra Club Pro

Aproveite o Cifra Club com benefícios exclusivos e sem anúncios
7 dias grátis
Cifra Club Pro
Aproveite o Cifra Club com benefícios exclusivos e sem anúncios
7 dias grátis