Am6
1234
5X455X
Cadd9
34
X35533
D
123
XX0232
Em
12
022000
G
123
320003
Tom: G
Intro:

#1t1#  Gtr. 1
#1t2#E|-----------------|----------------|-----------------|-----------------|
B|-----------------|----------------|-----------------|-----------------|
G|--x-x-7-x-x-9-x--|--x-x-7-x-x-9-9-|--x-x-7-x-x-9-x--|--x-x-7-x-x-9-9--|
D|--x-x-x-x-x-x-x--|--x-x-x-x-x-x-x-|--x-x-x-x-x-x-x--|--x-x-x-x-x-x-x--|
A|-----------------|----------------|-----------------|-----------------|
E|-----------------|----------------|-----------------|-----------------|#/1t2##/1t1#
_________________________________________________________________________________________

Verse: (Intro played 2 times)
_________________________________________________________________________________________

Chorus:

    Em                                       Cadd9
 Gtr.1
#2t1##2t2#E|--12-12--12--12-12-12-12-12-12-12-12-x-x-|-10---10--10-10-10-10-10-10-10-10-x-x--|
B|--12-12--12--12-12-12-12-12-12-12-12-x-x-|-8----8---8--8--8--8--8--8--8--8--x-x--|
G|--12-12--12--12-12-12-12-12-12-12-12-x-x-|-9----9---9--9--9--9--9--9--9--9--x-x--|
D|--14-14--14--14-14-14-14-14-14-14-14-x-x-|-10---10--10-10-10-10-10-10-10-10-x-x--|
A|-----------------------------------------|---------------------------------------|
E|-----------------------------------------|---------------------------------------|#/2t2##/2t1#

#3t1#     Am6                                      G                  D
#3t2#E|--14---14--14-14-14-14-14-14-14-14-x-x--|----------------------------------------|
B|--13---13--13-13-13-13-13-13-13-13-x-x--|--12---12---12--x-x--10---10------------|
G|--14---14--14-14-14-14-14-14-14-14-x-x--|--12---12---12--x-x--11---11------------|
D|--x----x---x--x--x--x--x--x--x--x--x-x--|--12---12---12--x-x--12---12------------|
A|--12---12--12-12-12-12-12-12-12-12------|--10---10---10--x-x--12---12------------|
E|----------------------------------------|----------------------------------------|#/3t2##/3t1#
_________________________________________________________________________________________

Interlude:

#4t1#  Gtr.1
#4t2#E|-------------------|-------------------|-------------------|-------------------|
B|-------------------|-------------------|-------------------|-------------------|
G|---------7---------|---------7---------|---------7---------|---------7---------|
D|--------------5--7-|-------------------|--------------5--7-|-------------------|
A|--7----------------|--7----------------|--7----------------|--7----------------|
E|----0--------------|----0--------------|----0--------------|----0--------------|
 |#/4t2##/4t1#
 |Gtr.2 and 3 (Gtr. 3 plays all notes on G string)
 |                                   1                                       1
#5t1##5t2#E|------12-----12----|------12-----15^---|------12-----12----|------12-----15^---|
B|---15-----15----15-|---15-----15-------|---15-----15----15-|---15-----15-------|
G|----------7-/14-12-|----------7>>14/---|----------7-/14-12-|----------7>>14/---|
D|-------------------|-------------------|-------------------|-------------------|
A|-------------------|-------------------|-------------------|-------------------|
E|-------------------|-------------------|-------------------|-------------------|
 |#/5t2##/5t1#
 |Gtr.4 (Gradually release all bends back to the not in brackets)
 |     1         1            1         1      1         1            1         1
#6t1##6t2#E|-----^---------^---|--------^---------^|-----^---------^---|--------^---------^|
B|----8^---(8)/12^---|(12)---8^---(8)/12^|----8^---(8)/12^---|(12)---8^---(8)/12^|
G|-------------------|-------------------|-------------------|-------------------|
D|-------------------|-------------------|-------------------|-------------------|
A|-------------------|-------------------|-------------------|-------------------|
E|-------------------|-------------------|-------------------|-------------------|#/6t2##/6t1#
_________________________________________________________________________________________

VERSE
_________________________________________________________________________________________

CHORUS
_________________________________________________________________________________________

Bridge: (Play intro once first)

#7t1##7t2#E|--10--10-10-10-10-10-10-10-10-10-10-10-10-10-10-|
B|--8---8--8--8--8--8--8--8--8--8--8--8--8--8--8--|
G|--9---9--9--9--9--9--9--9--9--9--9--9--9--9--9--|
D|--10--10-10-10-10-10-10-10-10-10-10-10-10-10-10-|
A|------------------------------------------------|
E|------------------------------------------------|#/7t2##/7t1#

#8t1##8t2#E|--10-10-10-10-10-10-10-10-10-10-10-10-10-10-10-10-|
B|--8--8--8--8--8--8--8--8--8--8--8--8--8--8--8--8--|
G|--9--9--9--9--9--9--9--9--9--9--9--9--9--9--9--9--|
D|--10-10-10-10-10-10-10-10-10-10-10-10-10-10-10-10-|
A|--------------------------------------------------|
E|--------------------------------------------------|#/8t2##/8t1#

#9t1##9t2#E|--12-12-12-12-12-12-12-12-12-12-12-12-12-12-12-12-|
B|--13-13-13-13-13-13-13-13-13-13-13-13-13-13-13-13-|
G|--11-11-11-11-11-11-11-11-11-11-11-11-11-11-11-11-|
D|--------------------------------------------------|
A|--------------------------------------------------|
E|--------------------------------------------------|#/9t2##/9t1#

#10t1##10t2#E|--12-12-12-12-12-12-12-12-12-12-12-12-12-12-12-x-10-|
B|--13-13-13-13-13-13-13-13-13-13-13-13-13-13-13-x-8--|
G|--11-11-11-11-11-11-11-11-11-11-11-11-11-11-11-x-9--|
D|-----------------------------------------------x----|
A|----------------------------------------------------|
E|----------------------------------------------------|#/10t2##/10t1#

#11t1##11t2#E|--10-10-10-10-10-10-10-10-10-10-10-10-10-10-10-10-|
B|--8--8--8--8--8--8--8--8--8--8--8--8--8--8--8--8--|
G|--9--9--9--9--9--9--9--9--9--9--9--9--9--9--9--9--|
D|--10-10-10-10-10-10-10-10-10-10-10-10-10-10-10-10-|
A|--------------------------------------------------|
E|--------------------------------------------------|#/11t2##/11t1#

#12t1##12t2#E|--10-10-10-10-10-10-10-10-10-10-10-10-10-10-10-x--|
B|--8--8--8--8--8--8--8--8--8--8--8--8--8--8--8--x--|
G|--9--9--9--9--9--9--9--9--9--9--9--9--9--9--9--x--|
D|--10-10-10-10-10-10-10-10-10-10-10-10-10-10-10-x--|
A|--------------------------------------------------|
E|--------------------------------------------------|#/12t2##/12t1#

#13t1##13t2#E|--12-12-12-12-12-12-12-12-12-12-12-12-12-12-12-x-14-|
B|--13-13-13-13-13-13-13-13-13-13-13-13-13-13-13-x-13-|
G|--11-11-11-11-11-11-11-11-11-11-11-11-11-11-11-x-14-|
D|-----------------------------------------------x----|
A|----------------------------------------------------|
E|----------------------------------------------------|#/13t2##/13t1#

#14t1##14t2#E|--14-14-14-14-14-14-14-15-15-15-15-15-15-15-15--|
B|--13-13-13-13-13-13-13-13-13-13-13-13-13-13-13--|
G|--14-14-14-14-14-14-14-14-14-14-14-14-14-14-14--|
D|------------------------------------------------|
A|------------------------------------------------|
E|------------------------------------------------|#/14t2##/14t1#
_________________________________________________________________________________________

Solo:
                                                             1 ½    1 ½             1 ½
#15t1##15t2#E|--0------0--0---0--0---0--0---0----0---0---0---0-----0-----^----0-^-------0--0--0-^---|
B|--15h17--17-17--17-17--17-17--17---17--17--17--15h17-17--17^----17^--(17)-17-17-17^---|
G|--------------------------------------------------------------------------------------|
D|--------------------------------------------------------------------------------------|
A|--------------------------------------------------------------------------------------|
E|--------------------------------------------------------------------------------------|#/15t2##/15t1#

#16t1##16t2#E|---------------------------------------------------------------------------------|
B|--(17)---15h17-17--17p15----15---------------------------------------------------|
G|-------------------------16-----16p14p12-14--14p12---12--------------------------|
D|--------------------------------------------------14-----14p12----14-------------|
A|---------------------------------------------------------------12----14p12p10-12-|
E|---------------------------------------------------------------------------------|#/16t2##/16t1#
#17t1#                                                                            1/4
#17t2#E|--------------------------------------------------------------------------^------|
B|--------------------------------------------------------------------------^------|
G|------------------------------------------------------------7---7--9--9/12^-12\\\|
D|---------------------------------------------5-----5--7h9-----9------------------|
A|--12p10----10------------------------5---5h7---7---------------------------------|
E|-------12-------12>>>>>>>3--0--3h5h7---------------------------------------------|#/17t2##/17t1#
_________________________________________________________________________________________

VERSE
_________________________________________________________________________________________

CHORUS
_________________________________________________________________________________________

Outro Solo: (in addition to chorus. Starts on the G chord):

W/Wah Wah

#18t1#                      1/2                    1                    1     1
#18t2#E|---------------------^---------------------^--------------------^-----^-------|
B|---------------------^---------------------^--------------------^--15-^-------|
G|---------------------^---------------------^--------------------14----14-(14)-|
D|-----------12--14--14^-(14)-12--12h14----14^--(14)p12--14p12------------------|
A|--10>>14----------------------------------------------------------------------|
E|------------------------------------------------------------------------------|#/18t2##/18t1#
#19t1#    1               1/2                1   1
#19t2#E|--^---------------^------------------^---^----------------------------|
B|--15--(15)-12-----^------------------^---^----------------------------|
G|------------------14--(14)--12----14-14--12--(12)----------12h14--12--|
D|-----------------------------------------------------12h14------------|
A|----------------------------------------------------------------------|
E|----------------------------------------------------------------------|#/19t2##/19t1#
#20t1#    1     1                     1               1    1
#20t2#E|--^-----^---------------------^-------------17^--17^-(17)--12---|
B|--^--15-^-------------------15^-(15)--12------------------------|
G|--14----14-(14)p12--14p12---------------------------------------|
D|----------------------------------------------------------------|
A|----------------------------------------------------------------|
E|----------------------------------------------------------------|#/20t2##/20t1#
Composição: Colaboração e revisão: Diogo Carniel