A
123
X02220
A6
1234
5X465X
A7
12
X02020
A7/5-
12
X0102X
C#m
234
X46654
D
123
XX0232
D/F#
1234
2X0232
12
XX0101
E
123
022100
F#
234
244322
G#
234
431114
G#7
34
464544
Tom: G
(intro) C#m E (2x) A7/5- G#
        A C#m A7 A6

 D D/F#    
Aaaaaaah, Aaah

  ( C#m E ) (2x)                           A7/5- G#
Because the world is round it turns me on
   A  C#m             A7 A6    D D/F#    
Because the world is round... Aaaaaaaahh
                                                                (dedilhado 1)
  ( C#m E ) (2x)                          A7/5- G#
Because the wind is high it blows my mind
   A  C#m            A7 A6   D D/F#    
Because the wind is high... Aaaaaaaahh

                      ( F# ) (2x)
Love is old, love is new
                      G# G#7                                    (dedilhado 2)
Love is all, love is you

  (C#m E ) (2x)                         A7/5- G#
Because the sky is blue, it makes me cry
   A  C#m           A7 A6   D D/F#    Dº                        (dedilhado 1)
Because the sky is blue... Aaaaaaaahh

(C#m E ) (2x) A7/5- G# A C#m A7 A6 D D/F# Dº (dedilhado 1)

(intro & dedilhado 1)

#1t1#   C#m         E   C#m         E   A7/5-           G#
#1t2#E|---------------|---------------|---------------|----------------|
B|------5--------|------5--------|------4--------|------4---------|
G|----6---6------|----6---6------|----6---6------|----5---5-------|
D|--6-------6---6|--6-------6---6|--7-------7---4|--6-------6---6-|
A|4-----------7--|4-----------7--|6-----------7--|6---------------|
E|---------------|---------------|---------------|------------4---|#/1t2##/1t1#

#2t1#   A                 C#m               A7                A6
#2t2#E|----------------|-----------------|-----------------|------------|
B|------5---------|-------5---------|-------8---------|-------7----|
G|----6---6-------|-----6---6-------|-----6---6-------|-----6------|
D|--7-------7---7-|---6-------6---6-|---5-------5---5-|---5--------|
A|------------7---|-4-----------4---|-------------7---|------------|
E|5---------------|-----------------|-5---------------|-5----------|#/2t2##/2t1#

#3t1#   D                 
#3t2#E|------2---------|-------2-1---|
B|----3---3-------|-----3-------|
G|--2-------2---2-|---1---------|
D|0-----------4---|-0-----------|
A|----------------|-------------|
E|----------------|-------------|#/3t2##/3t1#

#4t1#(dedilhado 2)
   F#                                G#               G#7
#4t2#E|----------------|----------------|----------------|--------4-|
B|------2---------|------2---------|------4---------|------7---|
G|----3---3-------|----3---3-------|----5---5-----5-|----5-----|
D|--4-------4---4-|--4-------4---4-|--6-------6-4---|--4-------|
A|------------4---|------------4---|----------------|----------|
E|2---------------|2---------------|4---------------|4---------|#/4t2##/4t1#
Composição: John Lennon / Paul McCartneyColaboração e revisão: Victor Ferraz