Something

The Beatles

Tom: G
#1t1#Parte 1 de 8
#1t2#E|-----------------------------------------------------|
B|--------8-------------8b10-8b10r8--------------------|
G|----7/9---9~------7h9-------------9~-----------------|
D|-----------------------------------------------------|
A|-----------------------------------------------------|
E|-----------------------------------------------------|#/1t2##/1t1#

#2t1#Parte 2 de 8
#2t2#E|-----------------------------------------------------|
B|-----8h10-8-------13-13-b15r13-b17r15-13-------------|
G|-7h9--------12/15-------------------------14~--------|
D|-----------------------------------------------------|
A|-----------------------------------------------------|
E|-----------------------------------------------------|#/2t2##/2t1#

#3t1#Parte 3 de 8
#3t2#E|-----------------------------------------------------|
B|-----13-13\------------------------------------------|
G|-/14-------------12-12\------------------------------|
D|-------------/14------\--7~--------------------------|
A|-----------------------------------------------------|
E|-----------------------------------------------------|#/3t2##/3t1#
     
#4t1#Parte 4 de 8   
#4t2#E|-----------------------------------------------------|
B|-----------------------------------------------------|
G|----------11-11-b16r14-b16r14-b16r14\12--------------|
D|-9\7-9/12--------------------------------------------|
A|-----------------------------------------------------|
E|-----------------------------------------------------|#/4t2##/4t1#

#5t1#Parte 5 de 8
#5t2#E|----------------10/12-11-10--------------------------|
B|-----14\-13\11---------------------------------------|
G|-12--------------------------------------------------|
D|-----------------------------------------------------|
A|-----------------------------------------------------|
E|-----------------------------------------------------|#/5t2##/5t1#

#6t1#Parte 6 de 8
#6t2#E|-----------------------------------------------------|
B|-----------------------------------------------------|
G|-7b8r7b8r7b8r7p5~--7b8r7b8r7b8r7b8r7p5---------------|
D|-----------------------------------------------------|
A|-----------------------------------------------------|
E|-----------------------------------------------------|#/6t2##/6t1#

#7t1#Parte 7 de 8
#7t2#E|---------------------10b12-10-8h10-8b----------------|
B|------------------8----------------------------------|
G|-7b8r7b8r7p5--7/9------------------------------------|
D|-----------------------------------------------------|
A|-----------------------------------------------------|
E|-----------------------------------------------------|#/7t2##/7t1#

#8t1#Parte 8 de 8
#8t2#E|-----------------------------------------------------|
B|-10-b13r12p10-11-12--/13~----------------------------|
G|-----------------------------------------------------|
D|-----------------------------------------------------|
A|-----------------------------------------------------|
E|-----------------------------------------------------|#/8t2##/8t1#
Composição: George HarrisonColaboração e revisão: Lucas Kappaun
Videoaula SOMETHING | Como fazer solo de guitarra