Love Story

Tsol

Tom: G
Bass.

Play the intro using the staccato technique.

#1t1##1t2#------------------------------------------------------------|
------------------------------------------------------------|
-5-------------------7-----10-10--------5-------------------|
-5-------------------7-----10-10--------5-------------------|
-3-------------------5-----8--8---------3-------------------|
------------------------------------------------------------|#/1t2##/1t1#


#2t1##2t2#-8-8-8--5-5-5--8-8-8--5-5-5--8---8-----------------------------------|
-8-8-8--5-5-5--8-8-8--5-5-5--8---8-----------------------------------|
-----------------------------------------7--7-7-7-7-7-7-------5--5-5-|
-----------------------------------------7--7-7-7-7-7-7-------5--5-5-|
-------------------------------------5*--5--5-5-5-5-5-5---3*--3--3-3-|
---------------------------------------------------------------------|#/2t2##/2t1#


#3t1##3t2#-----------------------------------------8-8-8--5-5-5--8-8-8--5-5-5-8-|
-----------------------------------------8-8-8--5-5-5--8-8-8--5-5-5-8-|
-5-5-5-5-------7--7-7-7-7--10--10-10-10-------------------------------|
-5-5-5-5-------7--7-7-7-7--10--10-10-10-------------------------------|
-3-3-3-3---5*--5--5-5-5-5--8---8--8--8--------------------------------|
----------------------------------------------------------------------|#/3t2##/3t1#


#4t1#Verse:
#4t2#----------------------------------------------------------------|
----------------------------------------------------------------|
-7--7--7--7--5---5----7--7--7--7--5---5---7--7--7--7--5---5-----|
-7--7--7--7--5---5----7--7--7--7--5---5---7--7--7--7--5---5-----|
-5--5--5--5--3---3----5--5--5--5--3---3---5--5--5--5--3---3-----|
----------------------------------------------------------------|#/4t2##/4t1#


#5t1##5t2#----------------------------------------------------------------|
----------------------------------------------------------------|
-7--7--7--7--5---5----7--7--7--7--5---5---7--7--7--7--5---5-----|
-7--7--7--7--5---5----7--7--7--7--5---5---7--7--7--7--5---5-----|
-5--5--5--5--3---3----5--5--5--5--3---3---5--5--5--5--3---3-----|
----------------------------------------------------------------|#/5t2##/5t1#

#6t1#Chorus:
#6t2#------------------------------------------------------------------|
------------------------------------------------------------------|
-----------------------5-5-5--7-------------------------5-5-5--7--|
-7--7--7----9--9--9----5-5-5--7---7--7--7----9--9--9----5-5-5--7--|
-7--7--7----9--9--9----3-3-3--5---7--7--7----9--9--9----3-3-3--5--|
-5--5--5----7--7--7---------------5--5--5----7--7--7--------------|#/6t2##/6t1#


#7t1##7t2#------------------------------------------------------------------|
------------------------------------------------------------------|
-----------------------5-5-5--7-------------------------5-5-5--7--|
-7--7--7----9--9--9----5-5-5--7---7--7--7----9--9--9----5-5-5--7--|
-7--7--7----9--9--9----3-3-3--5---7--7--7----9--9--9----3-3-3--5--|
-5--5--5----7--7--7---------------5--5--5----7--7--7--------------|#/7t2##/7t1#

#8t1#Verse:
#8t2#----------------------------------------------------------------|
----------------------------------------------------------------|
-7--7--7--7--5---5----7--7--7--7--5---5---7--7--7--7--5---5-----|
-7--7--7--7--5---5----7--7--7--7--5---5---7--7--7--7--5---5-----|
-5--5--5--5--3---3----5--5--5--5--3---3---5--5--5--5--3---3-----|
----------------------------------------------------------------|#/8t2##/8t1#


#9t1##9t2#----------------------------------------------------------------|
----------------------------------------------------------------|
-7--7--7--7--5---5----7--7--7--7--5---5---7--7--7--7--5---5-----|
-7--7--7--7--5---5----7--7--7--7--5---5---7--7--7--7--5---5-----|
-5--5--5--5--3---3----5--5--5--5--3---3---5--5--5--5--3---3-----|
----------------------------------------------------------------|#/9t2##/9t1#

#10t1#Chorus:
#10t2#------------------------------------------------------------------|
------------------------------------------------------------------|
-----------------------5-5-5--7-------------------------5-5-5--7--|
-7--7--7----9--9--9----5-5-5--7---7--7--7----9--9--9----5-5-5--7--|
-7--7--7----9--9--9----3-3-3--5---7--7--7----9--9--9----3-3-3--5--|
-5--5--5----7--7--7---------------5--5--5----7--7--7--------------|#/10t2##/10t1#


#11t1##11t2#------------------------------------------------------------------|
------------------------------------------------------------------|
-----------------------5-5-5--7-------------------------5-5-5--7--|
-7--7--7----9--9--9----5-5-5--7---7--7--7----9--9--9----5-5-5--7--|
-7--7--7----9--9--9----3-3-3--5---7--7--7----9--9--9----3-3-3--5--|
-5--5--5----7--7--7---------------5--5--5----7--7--7--------------|#/11t2##/11t1#


#12t1#Solo:
#12t2#-7---------7\----5---------5/----7--------10-----------10\---5-----|
---8-------8\------6-------6/------8-----------8--------8\-----6---|
-----9-----9\--------7-----7/--------9-------------9----9\-------7-|
-------------------------------------------------------------------|
-------------------------------------------------------------------|
-------------------------------------------------------------------|#/12t2##/12t1#


#13t1##13t2#-7---------7\----5---------5/----7--------10-----------10\---5-----|
---8-------8\------6-------6/------8-----------8--------8\-----6---|
-----9-----9\--------7-----7/--------9-------------9----9\-------7-|
-------------------------------------------------------------------|
-------------------------------------------------------------------|
-------------------------------------------------------------------|#/13t2##/13t1#


#14t1##14t2#------------|
------------|
------------|
-10-10--11--|
-10-10--11--|
-8--8---9---|#/14t2##/14t1#


#15t1#Verse:
#15t2#----------------------------------------------------------------|
----------------------------------------------------------------|
-7--7--7--7--5---5----7--7--7--7--5---5---7--7--7--7--5---5-----|
-7--7--7--7--5---5----7--7--7--7--5---5---7--7--7--7--5---5-----|
-5--5--5--5--3---3----5--5--5--5--3---3---5--5--5--5--3---3-----|
----------------------------------------------------------------|#/15t2##/15t1#


#16t1##16t2#----------------------------------------------------------------|
----------------------------------------------------------------|
-7--7--7--7--5---5----7--7--7--7--5---5---7--7--7--7--5---5-----|
-7--7--7--7--5---5----7--7--7--7--5---5---7--7--7--7--5---5-----|
-5--5--5--5--3---3----5--5--5--5--3---3---5--5--5--5--3---3-----|
----------------------------------------------------------------|#/16t2##/16t1#

#17t1#Chorus:
#17t2#------------------------------------------------------------------|
------------------------------------------------------------------|
-----------------------5-5-5--7-------------------------5-5-5--7--|
-7--7--7----9--9--9----5-5-5--7---7--7--7----9--9--9----5-5-5--7--|
-7--7--7----9--9--9----3-3-3--5---7--7--7----9--9--9----3-3-3--5--|
-5--5--5----7--7--7---------------5--5--5----7--7--7--------------|#/17t2##/17t1#


#18t1##18t2#----------------------------------------------------------------|
----------------------------------------------------------------|
-----------------------5-5-5--7---------------------------------|
-7--7--7----9--9--9----5-5-5--7---7--7--7----9--9--9----5-5-5---|
-7--7--7----9--9--9----3-3-3--5---7--7--7----9--9--9----5-5-5---|
-5--5--5----7--7--7---------------5--5--5----7--7--7----3-3-3---|#/18t2##/18t1#


Interlude:
Wait for the bass to come in, as like the intro and then incorporate staccato.

#19t1##19t2#------------------------------------------------------------|
------------------------------------------------------------|
-5-------------------7-----10-10--------5-------------------|
-5-------------------7-----10-10--------5-------------------|
-3-------------------5-----8--8---------3-------------------|
------------------------------------------------------------|#/19t2##/19t1#


#20t1##20t2#-8-8-8--5-5-5--8-8-8--5-5-5--8---8--|
-8-8-8--5-5-5--8-8-8--5-5-5--8---8--|
------------------------------------|
------------------------------------|
------------------------------------|
------------------------------------|#/20t2##/20t1#


#21t1#Chorus:
#21t2#------------------------------------------------------------------|
------------------------------------------------------------------|
-----------------------5-5-5--7-------------------------5-5-5--7--|
-7--7--7----9--9--9----5-5-5--7---7--7--7----9--9--9----5-5-5--7--|
-7--7--7----9--9--9----3-3-3--5---7--7--7----9--9--9----3-3-3--5--|
-5--5--5----7--7--7---------------5--5--5----7--7--7--------------|#/21t2##/21t1#


#22t1##22t2#----------------------------------------------------------------|
----------------------------------------------------------------|
-----------------------5-5-5--7---------------------------------|
-7--7--7----9--9--9----5-5-5--7---7--7--7----9--9--9----5-5-5---|
-7--7--7----9--9--9----3-3-3--5---7--7--7----9--9--9----5-5-5---|
-5--5--5----7--7--7---------------5--5--5----7--7--7----3-3-3---|#/22t2##/22t1#
Composição: Colaboração e revisão: