busca

Serious

Tsol

Tom: C
Serioius- T.S.O.L.


Tuning:standard

Main riff
e|-------------------------------------------------------------------------------------|
B|-------------------------------------------------------------------------------------|
G|-------------------------------------------------------------------------------------|
D|------------2-2-2---5-5-5------------------------------------------------------------|
A|--2-2------0-0-0---3-3-3--5-5-5------------------------------------------------------|
E|--0-0---3---------------------3-3-3--------------------------------------------------|

Verse- scratching

Chorus*
e|------------------------------------------------------------------------------------|
B|---------------------------10101010-------------------------------------------------|
G|----------------------------9-9-9-9-------------------------------------------------|
D|--5-5-5-5----7-7-7-7--7-7-7-7-------------------------------------------------------|
A|--3-3-3-3----5-5-5-5---7-7-7-7------------------------------------------------------|
E|-----------------------------5-5-5-5------------------------------------------------|
*- two guitars
Theres a solo thats easy to figure out so do it yourself.

Clipes