busca

Agarrada Em Mim

Bruno e Marrone

Tom: A
[Intro] Bb  Dm  Eb  F  Bb  F

E|--------------2/3------------------2/3-----------------------3-----------|
B|-3/6--1/3--6------6-4-3-6~--1/3--6-----6---4-3-4-3-------6-----3---------|
G|----------------------------------------------------5-3-----------5------|
D|-------------------------------------------------------------------------|
A|-------------------------------------------------------------------------|
E|-------------------------------------------------------------------------|

E|----------------------7~------------------------------------------------|
B|----------------4--7----------------------------------------------------|
G|---343-------4----------------------------------------------------------|
D|--------7-7-6-----------------------------------------------------------|
A|------------------------------------------------------------------------|
E|------------------------------------------------------------------------|

   Bb
Enquanto a cidade dorme
               Eb
E eu aqui me lembro
                         (riff 01)
         F           Bb    F
Quanto tempo,quanto tempo
    Bb
A gente já não fica junto
              Eb
Mais nenhum momento
                           (riff 02)
         F           Bb   Bb7
Quanto tempo,quanto tempo
    Eb                  F
Eu sei que foi só uma transa
           Dm                Gm
Mas sua lembrança me deixou assim
   Eb                 F
Querendo ter você de novo ,
                (riff 03)
   Bb          Bb7
Agarrada em mim
    Eb                  F
Desculpe se eu senti saudade,
             Bb                 Gm
Se me deu vontade,eu não sei fingir
                               (riff 01)
      Eb          F           Bb  F
Faz tempo,mas eu nunca te esqueci
  Bb                        Dm
Vem,quero amar seu corpo inteiro
                    Eb
Namorar,sentir seu cheiro
                     (riff 04)
        Cm           F
Sem ter pressa de acabar,o,o,o
 Bb                      Dm
Vem,que eu estou aqui sozinho
                Eb
Precisando de carinho
     (riff 05)          riff 01)
       F            Bb  F
Com vontade de te amar

E|--------------2/3------------------2/3-----------------------3-----------|
B|-3/6--1/3--6------6-4-3-6~--1/3--6-----6---4-3-4-3-------6-----3---------|
G|----------------------------------------------------5-3-----------5------|
D|-------------------------------------------------------------------------|
A|-------------------------------------------------------------------------|
E|-------------------------------------------------------------------------|

E|-------------765/65----------------------------------------------------|
B|---------------------765/65--------------------------------------------|
G|---343-----------------------7-5----------------------------------------|
D|---------------------------------7-8------------------------------------|
A|------------------------------------------------------------------------|
E|------------------------------------------------------------------------|

    Eb                  F
Eu sei que foi só uma transa
           Dm                Gm
Mas sua lembrança me deixou assim
   Eb                 F
Querendo ter você de novo ,
               (riff 02)
   Bb          Bb7
Agarrada em mim
    Eb                  F
Desculpe se eu senti saudade,
             Bb                 Gm
Se me deu vontade,eu não sei fingir
                                (riff 01)
      Eb          F           Bb  F
Faz tempo,mas eu nunca te esqueci
  Bb                        Dm
Vem,quero amar seu corpo inteiro
                    Eb
Namorar,sentir seu cheiro
                      (riff 04)
         Cm           F
Sem ter pressa de acabar,o,o,o
 Bb                      Dm
Vem,que eu estou aqui sozinho
                Bb
Precisando de carinho
                    (riff 01)
      F            Bb  F
Com vontade de te amar
  Bb                        Dm
Vem,quero amar seu corpo inteiro
                    Eb
Namorar,sentir seu cheiro
         Cm           F
Sem ter pressa de acabar,o,o,o
 Bb                      Dm
Vem,que eu estou aqui sozinho
                Bb
Precisando de carinho
      F            Bb  F
Com vontade de te amar

(riff 01)
E|--------------------|
B|--------------------|
G|--------------------|
D|-3-3--2--3--2-------|
A|--------------------|
E|--------------------|

(riff 02)
E|---------------------|
B|----3--2--0----------|
G|---------------------|
D|-3-------------------|
A|---------------------|
E|---------------------|

 (riff 03)
E|-0/3--0-----------------|
B|---------0/2-0----------|
G|----------------2-------|
D|------------------------|
A|------------------------|
E|------------------------|

(riff 04)
E|--------------------------|
B|--------------------------|
G|--------------------------|
D|-3-3--2--3--2-4-5-4-5-7---|
A|--------------------------|
E|--------------------------|

(riff 05)
E|--------------|
B|--------------|
G|--------------|
D|-4-5-7--------|
A|--------------|
E|--------------|

Clipes