E|-12~---------------15----15\---10-12-13-12h13p12----12--- E|-12~---------------15----15\---10-12-13-12h13p12----12---
busca

Anjo Loiro

Bruno e Marrone

Tom: C
Intro 4x: G  C

E|-12~---------------15----15\---10-12-13-12h13p12----12---12\--8-10-12-10h12p10-----15----15\---
B|-8~~----11/12----------------------------------------------------------------------------------
G|-9~~----11/12---12----12--------------------------9----9------------------------12----12-------
D|-----------------------------------------------------------------------------------------------
A|-----------------------------------------------------------------------------------------------
E|-----------------------------------------------------------------------------------------------

E|-10-10--12---13-13----15p13--12~-------12----10----8---15-15-15--------------------------------
B|-12-12--13---15-15----15-----13~-----13----12----10--------------------------------------------
G|-----------------------------------------------------------------------------------------------
D|-----------------------------------------------------------------------------------------------
A|-----------------------------------------------------------------------------------------------
E|-----------------------------------------------------------------------------------------------

E|-------------------15----15\---10-12-13-12h13p12----12---12\--8-10-12-10h12p10-----------------
B|-----------------------------------------------------------------------------------------------
G|----------------12----12--------------------------9----9---------------------------------------
D|-----------------------------------------------------------------------------------------------
A|-----------------------------------------------------------------------------------------------
E|-----------------------------------------------------------------------------------------------

E|-17-15-13-12---------13-12---------------------------------------------------------------------
B|-------------15------------15-13-12------15-13-12--------------------------12/13---------------
G|--------------------------------------------------14-12-----16-14-12---------------------------
D|---------------------------------------------------------------------15-14---------------------
A|-----------------------------------------------------------------------------------------------
E|-----------------------------------------------------------------------------------------------

 C
Na casa onde ela mora
   G               C
Na tábua do seu portão
                 C/G
Desenhei o nosso nome
                  G
Dentro de um coração
   F
Declarei meus sentimetos
   C
E quem passa  por aqui
                      G
Vai saber quem é o dono
                 C
O amor que mora ali

           G
É um anjo loiro
               C
Dos cabelos cacheados
C/G                   G
Um metro e setenta e cinco
                C
Meu pedaço de pecado

          G
É uma paixão
                         C
Que rasga o peito pelo avesso
                     F
Trinta e cinco de cintura
         G                C
Cem por cento que eu conheço

G                C
Ai, esse amor me mata
           G
A saudade dói, solidão corrói
             C
A paixão maltrata
G                 C
Ai, entrou no meu peito
               G
Feito um passarinho, fez o seu ninho
                C
E não tem mais jeito

C
Se alguém estiver pensando
G                    C
Que vai roubá-la de mim
                   C/G
Tire o cavalo da chuva
                     G
Vai pastar noutro capim
 F
Esse coração é meu
                   C
Com papel ou sem papel
                   G
Sou abelha ela é flor
                  C
Sou o favo ela o mel

           G
É um anjo loiro
               C
Dos cabelos cacheados
C/G                   G
Um metro e setenta e cinco
                C
Meu pedaço de pecado

          G
É uma paixão
                         C
Que rasga o peito pelo avesso
                     F
Trinta e cinco de cintura
         G                C
Cem por cento que eu conheço

Clipes