/ /Base:/ / /1ª Parte:/ / /Base:/ / /1ª Parte:/
busca

Essa História Eu Conheço

Bruno e Marrone

Tom: D
Intro:
E|-2-2-0--------0h2-0-------2-------------------2-2-0-----0h2-----------------||
B|-3-----3------------3-------3--3-2-3--3-2-2/7-3-----3-------2-7/5-3--3-2-3--||
G|-2--------------------1/2---2--2-2-2--2-2-2/7-2---------------7/4-2--2-2-2--||
D|-0----------0------------------0-0-0--0-0-0---0-------0-----------0--0-0-0--||
A|----------------------------------------------------------------------------||
E|----------------------------------------------------------------------------||

Base:
E|----------------------------------------||
B|----------3--------------5-7-5-7/12--3--||
G|---------2-------------7-------------2--||
D|--------0----------------------------0--||
A|----------------------------------------||
E|-------------0-5------------------------||

1ª Parte:
E|---2-0-0--|-----------------------0--------------------------------0---0h2-0-----2||
B|---3-3-2-3|-----0-----0--0----0-------0-------2---2/3------2---3---2---------2--3-||
G|--2-2-2---|---0------0--0---0---0---0---0-----2---2/3------2---2------2--------2--||
D|-0------0-|-2-----4-2--4--2-----------------0---0--------2---2---2---0------------||   (2x)
A|----------|--------------------------------------------0--------------------------||
E|----------|-------------------------------3---------------------------------------||

E|--------------------------------------------------------------------||
B|-------------12----10--10-------------------------------------------||
G|--------------------------0---5-4-7---------------------------------||
D|-------------9-----7---7--2-----------------------------------------||
A|---------10--10----8---8--3-----------------------------------------||
E|-10-9-10------------------------------------------------------------||
D                  D D9 D
Eu jurei que nunca mais
                       Em
Iria encontrar você de novo
                A
Nem ouvir a sua voz
                          D     A
Tentando te esquecer virei o jogo
                    D
Eu jurei que nunca mais
                      Em
Iria te ligar de madrugada
                 G
Resolvi pensar em mim
A
vai ser agora ou nunca 
      D
Tudo ou nada

Refrão:
A                       D
Se eu te encontrar por ai

Não sei se vou resistir
                    Em
Porque eu ainda te amo
                      A
Amor que fica e que doi
                   A7
Ninguem no mundo destroí
        G         D  D9 D
Essa saudade me mata
A                 D
Queria tanto te ver
                 D7
E não me arrepender
                     G
Voltar de novo ao começo
                   D
Ja to me vendo chorar
                  A
Se pra você eu voltar
              G     A      D  (Intro)
Pois essa história eu conheço

                     
volta do inicio

Clipes