Foi Engano

Bruno e Marrone

A
123
X02220
A/C#
1234
X4X255
A/E
123
0X2220
A4/G
1234
302230
A9
12
X02200
Am/C
1234
X3225X
B
234
X24442
B4
234
X24452
B7
1234
X21202
B9
34
X24422
Bm
234
X24432
D
123
XX0232
D4
123
XX0233
D5
134
X577XX
D9
12
XX0230
E
123
022100
E/G#
1234
4X245X
E4
123
022200
E9
123
024100
F#/A#
1234
6X467X
F#4
234
244422
F#m
34
244222
G
123
320003
G/A
1234
5X543X
G5
134
355XXX
Tom: G
(intro) E9 B9 F#m Am/C E/G# F#/A# B4 A/E B E A E

#1t1##1t2#E |------------10------------------------12-8-7--------7-----9--------------------------|
 B |--9-9-10-12----12-10-12--10-9-10-9-10---------7-7/9-----7---7---------------10-9-----|
G |---------------------------------------------9--------9------9----9-11--9--------11-9|
D |---------------------------------------------------------------7-9-------------------|
A |-------------------------------------------------------------------------------------|
E |-------------------------------------------------------------------------------------|#/1t2##/1t1#

E                                     B9
Desligou o telefone por uma besteira atoa,quando
                             E9        A E
fui falar seu nome falei de outra pessoa,me
                             B9
desculpe foi engano não tem nada a ver com a gente,
  A         F#m B7    E E4 G             D9
um caso banal, diferente, bem que eu tentei, te
       A9             D D4 D5  G5       D Bm
convencer e que foi engano,    quero te ver pra te
   A              D G A D  D              A
dizer que eu te amo.       Não,não,da pra me ver te
             G          G/A  A          D   G A D
amar e te perder se não vivo sem os beijos seus.
D                A                 G
Vem me dar seu amor eu te peçoo por favor vem
    A4/G A/C#          D
correndo pela amor de deus.

#2t1##2t2#E |---------------------------------------------------------------|
B |---7-8-----10-------------------------------------10-12-9-10-12|
G |------9-7-9---11----7-6/7---7-8^11-8---7-6--6-7----------------|
D |--------------------------7----------------7----7--------------|
A |---------------------------------------------------------------|
E |---------------------------------------------------------------|#/2t2##/2t1#

(solo) D G A Bm G A F#4 B

(repete tudo)
Composição: João VictorColaboração e revisão: Felipe SouzaAthos Araújo