E |------------10------------------------12-8-7--------7-----9--------------" /> E |------------10------------------------12-8-7--------7-----9--------------">
busca

Foi Engano

Bruno e Marrone

Tom: D
(intro) E9 B9 F#m Am/C E/G# F#/A# B4 A/E B E A E

E |------------10------------------------12-8-7--------7-----9--------------------------|

 B |--9-9-10-12----12-10-12--10-9-10-9-10---------7-7/9-----7---7---------------10-9-----|
G |---------------------------------------------9--------9------9----9-11--9--------11-9|
D |---------------------------------------------------------------7-9-------------------|
A |-------------------------------------------------------------------------------------|
E |-------------------------------------------------------------------------------------|

E                                     B9
Desligou o telefone por uma besteira atoa,quando
                             E9        A E
fui falar seu nome falei de outra pessoa,me
                             B9
desculpe foi engano não tem nada a ver com a gente,
  A         F#m B7    E E4 G             D9
um caso banal, diferente, bem que eu tentei, te
       A9             D D4 D5  G5       D Bm
convencer e que foi engano,    quero te ver pra te
   A              D G A D  D              A
dizer que eu te amo.       Não,não,da pra me ver te
             G          G/A  A          D   G A D
amar e te perder se não vivo sem os beijos seus.
D                A                 G
Vem me dar seu amor eu te peçoo por favor vem
    A4/G A/C#          D
correndo pela amor de deus.

E |---------------------------------------------------------------|
B |---7-8-----10-------------------------------------10-12-9-10-12|
G |------9-7-9---11----7-6/7---7-8^11-8---7-6--6-7----------------|
D |--------------------------7----------------7----7--------------|
A |---------------------------------------------------------------|
E |---------------------------------------------------------------|

(solo) D G A Bm G A F#4 B

(repete tudo)

Clipes