busca

O Tempo Não Para

Cazuza

Tom: G
Intro.: Em Am7 D (2x)

Em
Disparo contra o sol 
                       Am7 
Sou forte, sou por acaso 
                            D   D4
Minha metralhadora cheia de mágoas 
            Em 
Eu sou um cara 

Cansado de correr na direção contrária 
Am7 
Sem pódio de chegada 
                 D   D4
Ou beijo de namorada 
                  Em
Eu sou mais um cara 

Mas se você achar que eu estou derrotado 
Am7 
Saiba que ainda estão rolando os dados 
D             D4               Em
Porque o tempo, o tempo não para 
                   
Dias sim, dias não 
Am7 
Eu vou sobrevivendo sem um arranhão 
D                          Em   
Da caridade de quem me detesta     e||---------------3--------------------|
                                   B||---------------3--------------------|
                                   G||---------------0--------------------|
                                   D||--2--0---------0--------------------|
                                   A||--------2--0---2--------------------|
                                   E||---------------3--------------------|
G                            Am7 
A tua piscina está cheia de ratos 
                                  D    D4
Suas idéias não correspondem aos fatos 
              C 
O tempo não para 
G                               Am7 
Eu vejo um futuro repetir o passado 
                                D    D4
Eu vejo um museu de grandes novidades 
             C              D            Em
O tempo não para, não para não, não para 

(Em Am7 D)

Em
  Eu não tenho data pra comemorar 
Am7 
As vezes os meus dias são de par em par 
D          D4              Em 
Procurando agulhas no palheiro 

Nas noites de frio é melhor nem nascer 
    Am7 
Nas de calor, se escolhe: 

É matar ou morrer 
D                 D4        Em
E assim nos tornamos brasileiros 

Te chamam de ladrão, de bicha, maconheiro 
Am7                                 D 
Transformam um país inteiro num puteiro 
  D4                        Em   
Pois assim se ganha mais dinheiro  e||---------------3--------------------|
                                   B||---------------3--------------------|
                                   G||---------------0--------------------|
                                   D||--2--0---------0--------------------|
                                   A||--------2--0---2--------------------|
                                   E||---------------3--------------------|
G                            Am7 
A tua piscina está cheia de ratos 
                                  D    D4
Suas idéias não correspondem aos fatos 
              C 
O tempo não para 
G                               Am7 
Eu vejo um futuro repetir o passado 
                                D     D4
Eu vejo um museu de grandes novidades 
             C         C    D            Em
O tempo não para, não para não, não para 

Solo Base: G Am7 D D4 C Em Am7 D9 C

Os solos dos show raramente eram iguais, então, improvise!

Em
Dias sim, dias não 
Am7 
Eu vou sobrevivendo sem um arranhão 
D                          Em
Da caridade de quem me detesta     e||---------------3--------------------|
                                   B||---------------3--------------------|
                                   G||---------------0--------------------|
                                   D||--2--0---------0--------------------|
                                   A||--------2--0---2--------------------|
                                   E||---------------3--------------------|
G                            Am7 
A tua piscina está cheia de ratos 
                                  D    D4
Suas idéias não correspondem aos fatos 
              C 
O tempo não para 
G                               Am7 
Eu vejo um futuro repetir o passado 
                                D    D4
Eu vejo um museu de grandes novidades 
             C
O tempo não para,
D                                           Em
não para não, não, não, não, não, não, não para!

Clipes