busca

Calma

Enzo Rabelo

Tom: F#m
[Intro] D  A  E  
        F#m  E  D

E|------------------------------------------|
B|-5/7---7----3/5---5-----------------------|
G|-----7---7------6---6---------------------|
D|------------------------------------------|
A|------------------------------------------|
E|------------------------------------------|

E|------------------------------------------|
B|-3/5---5-------10-9-7---------------------|
G|-----6---6--/7----------------------------|
D|------------------------------------------|
A|------------------------------------------|
E|------------------------------------------|

D           A          E
  Quatro abraços um café
    F#m
Acabei de acordar 
D       A           E
  Procurando por você
           F#m
Encontrei tudo

D      A            E
  Sua mão na minha mão
          F#m
Nós vamos escapar do mundo
D         A            E
  Juntos vendo o sol cair

[Refrão]

               D
Vamos para a praia
            A
Pra curar a alma
                E
Só o céu com a gente
              F#m
Não queremos mais nada

          D                  A
Todo o caribe pegando na cintura
           E
E a gente livre 
              F#m
Eu, você e a lua 

               D
Vamos para a praia
            A
Pra curar a alma
                E
Só o céu com a gente
              F#m
Não queremos mais nada

          D                  A
Todo o caribe pegando na cintura
           E
E a gente livre 
              F#m
Eu, você e a lua 

 D          A      E        F#m
Lento y contento, cara al viento
 D          A      E        F#m
Lento y contento, cara al viento

[Solo] D  A  E  
       F#m  E  D
       D  A  E  
       F#m  E  D

E|------------------------------------------|
B|-5/7---7----3/5---5-----------------------|
G|-----7---7------6---6---------------------|
D|------------------------------------------|
A|------------------------------------------|
E|------------------------------------------|

E|------------------------------------------|
B|-3/5---5-------10-9-7---------------------|
G|-----6---6--/7----------------------------|
D|------------------------------------------|
A|------------------------------------------|
E|------------------------------------------|

E|------------------------------------------|
B|-5/7---7----3/5---5-----------------------|
G|-----7---7------6---6---------------------|
D|------------------------------------------|
A|------------------------------------------|
E|------------------------------------------|

E|------------------------------------------|
B|-3/5---5-------10-9-7---------------------|
G|-----6---6--/7----------------------------|
D|------------------------------------------|
A|------------------------------------------|
E|------------------------------------------|

[Refrão]

               D
Vamos para a praia
            A
Pra curar a alma
                E
Só o céu com a gente
              F#m
Não queremos mais nada

          D                  A
Todo o caribe pegando na cintura
           E
E a gente livre 
              F#m
Eu, você e a lua 

               D
Vamos para a praia
            A
Pra curar a alma
                E
Só o céu com a gente
              F#m
Não queremos mais nada

          D                  A
Todo o caribe pegando na cintura
           E
E a gente livre 
              F#m
Eu, você e a lua 

 D          A      E        F#m
Lento y contento, cara al viento
 D          A      E        F#m
Lento y contento, cara al viento

[Final] D  A  E  
        F#m  E  D
        D  A  E  F#m 

E|------------------------------------------|
B|-5/7---7----3/5---5-----------------------|
G|-----7---7------6---6---------------------|
D|------------------------------------------|
A|------------------------------------------|
E|------------------------------------------|

E|------------------------------------------|
B|-3/5---5-------10-9-7---------------------|
G|-----6---6--/7----------------------------|
D|------------------------------------------|
A|------------------------------------------|
E|------------------------------------------|

E|------------------------------------------|
B|-5/7---7----3/5---5-----------------------|
G|-----7---7------6---6---------------------|
D|------------------------------------------|
A|------------------------------------------|
E|------------------------------------------|

E|------------------------------------------|
B|-3/5---5-------10-9-7---------------------|
G|-----6---6--/7----------------------------|
D|------------------------------------------|
A|------------------------------------------|
E|------------------------------------------|

Clipes

Cifra Club Pro

Aproveite o Cifra Club com benefícios exclusivos e sem anúncios
Cifra Club Pro
Aproveite o Cifra Club com benefícios exclusivos e sem anúncios