Girl From Lebanon Intro

Europe

Tom: G

h hold
v vibrate
b bend
br bend release

#1t1##1t2#E|-------------------------------------------------------------------------|
B|--------------------5--8--10v----10h8-10h8---------------8---------------|
G|-------4---5---7-----------------------------7br--5--7b----9v------------|
D|---7---------------------------------------------------------------------|
A|-------------------------------------------------------------------------|
E|-------------------------------------------------------------------------|#/1t2##/1t1#


#2t1##2t2#E|-------------------------------------------------------------------------|
B|----------------5--8--3---3v---------------------------------------------|
G|------4--5--7-----------5------7h5-7h5------5----------------------------|
D|---7-------------------------------------7-----7---5---------------------|
A|-------------------------------------------------------7--5--3-----------|
E|----------------------------------------------------------------5--3s5---|#/2t2##/2t1#
Composição: A. Pessis / Beau Hill / Eddie Meduza / Eric Martin / Europe / Fiona / Gary Moore / Gilmour / Haugland / Ian Haugland / Joey Tempest / Joey Tempest ~ / John Levem / John Leven / John Norum / Leven / Marcelinho TDP / Marcello / Mic Micaeli / Mic Micaelli / Mic Michaeli / Michaeli / Tobias Lindell / WatersColaboração e revisão: