Ill Cry For You Acoustic

Europe

A
123
X02220
A/G
1234
3X222X
A/G#
1234
4X222X
Asus4
123
X02230
B
234
X24442
C#m
234
X46654
D
123
XX0232
Dsus2
12
XX0230
E
123
022100
F#m
34
244222
G#m
34
466444
Tom: G
I'LL CRY FOR YOU (Acoustic Version)

============================================================================
Transcription notation:

#1t1#    E     A    Asus4  A*   A/G    D    Dsus2 F#m    B    C#m   G#m   A(1)
#1t2#e---0-----0-----0-----x-----x-----2-----0-----2-----2-----4-----4-----5---|
b---0-----2-----3-----x-----x-----3-----3-----2-----4-----5-----4-----5---|
g---1-----2-----2-----2-----x-----2-----2-----2-----4-----6-----4-----6---|
d---2-----2-----2-----2-----2-----0-----0-----4-----4-----6-----6-----7---|
a---2-----0-----0-----0-----0-----x-----x-----4-----2-----4-----6-----7---|
e---0-----x-----x-----x-----4-----x-----x-----2-----x-----x-----4-----5---|#/1t2##/1t1#

#2t1#Riff1
#2t2#e------------------|
b------------------|
g------------------|    h - hammer on
d--------2-h-4-----|
a--2-h-4-----------|
e--------------0---|#/2t2##/2t1#

#3t1#Riff2
#3t2#e---------------------------------------------------|
b---------------------------------------------------|
g--------6-----------6-----------4-----------4------|
d-----6-----6-----4-----4-----2-----2-----2-----2---|
a--4-----------2-----------0------------------------|
e--------------------------------------4------------|#/3t2##/3t1#

============================================================================



 (the same throughout the song)

#4t1##4t2#e--16-16-16----16-19---------------------------|
b-----------19--------17-17-17-17-(continued)--|
g----------------------------------------------|
d----------------------------------------------|
a----------------------------------------------|
e----------------------------------------------|#/4t2##/4t1#

#5t1##5t2#e--16-16-16----16-19------------------------------------------|
b-----------19--------19-19-19-19-17-17-17-17-17-(continued)--|
g-------------------------------------------------------------|
d-------------------------------------------------------------|
a-------------------------------------------------------------|
e-------------------------------------------------------------|#/5t2##/5t1#


(Riff1)E                                              A        Asus4  A  Asus4
I never dreamed that I could fall but something?s come over me
(Riff1)E                                        A       Asus4  A  Asus4
Now I?m sittin? starin?at the wall afraid for my sanity
D                    Dsus2  D               Dsus2   A           Asus4  A  A*  A/G#
The sound of your voice the touch of your skin it?s hauntin? me
F#m                   E                     A
I?m still tryin? to come to my senses but I can?t look back
       B
so I?m takin? my chances


E                     C#m   B           A  B
I wanna give you my heart give you my soul
E                     C#m  B        A  B
I wanna lay in your arms never let go
E                   B               A                    B
Don?t wanna live my life without you but I know when you?re gone

#6t1##6t2#---------------------(Riff2)------------------ F#m  G#m  A(1)#/6t2##/6t1#
Like a fire needs a spark like a fool in the dark

I?ll cry for you


 + 


(Riff1)E                                      A        Asus4  A  Asus4
Wonderin? why I?m runnin? scared from what I belive in
(Riff1)E                                             A      Asus4  A  Asus4
I know that love is just another word to say what I?m feelin?
D                 Dsus2 D            Dsus2  A          Asus4  A  A*  A/G#
For once in my life the future is mine it?s callin? me
F#m                    E                           A
I?ve been searchin? so long for an answer but it?s too late now
       B
so I?m takin? my chances


E                     C#m   B           A  B
I wanna give you my heart give you my soul
E                     C#m  B        A  B
I wanna lay in your arms never let go
E                   B               A                    B
Don?t wanna live my life without you but I know when you?re gone

#7t1##7t2#---------------------(Riff2)------------------ F#m  G#m  A(1)#/7t2##/7t1#
Like a fire needs a spark like a fool in the dark
                    E
Honey I?ll cry for you

                                     A
(I wanna give you my heart) cry for you
                                                      E
(I wanna lay in your arms) hey honey I'll cry for you now
                                     A
(I wanna give you my heart) cry for you

(I wanna lay in your arms) don't make me cry for you
E               A
(oooh oooh oh oooh) ooh don't make cry baby now
E               A
(oooh oooh oh oooh) I've been searching for an answer now
E               A
(oooh oooh oh oooh) ooh I'm wondering why I'm running scared
E               A                       E                    E
(oooh oooh oh oooh) honey I'll cry for you.........everyday


Tabbed by Fandango aka *
Composição: A. Pessis / Beau Hill / Eddie Meduza / Eric Martin / Europe / Fiona / Gary Moore / Gilmour / Haugland / Ian Haugland / Joey Tempest / Joey Tempest ~ / John Levem / John Leven / John Norum / Leven / Marcelinho TDP / Marcello / Mic Micaeli / Mic Micaelli / Mic Michaeli / Michaeli / Tobias Lindell / WatersColaboração e revisão: