Tom: G
Chic with Slash

Tabbed by:    Hector Giron


#1t1#Rhythm.
#1t2#|--------------------------------------------|
|--------------5-5----------7---7-7-7---5-5--|
|--------------5-5----------7---7-7-7---5-5--|
|-5--7--7--5h7-----7p5-7---------------------|
|-5--7--7------------------------------------|
|-3--5--5------------------------------------|#/1t2##/1t1#
Freak out!!             Le Freak c'est Chic

And it's the same rhythm throughout the whole song. Pretty simple huh? The trick is to get
the timing right to give it that funky/disco sound we all love. It's a pretty catchy tune
and definitely worth a good listen because of the rhythmic possibilities. The song is in the
key of A and armed with that knowledge you should be able to use the A major pentatonic scale.

#2t1#After the solo, Slash does this cool lick with the wah pedal.
#2t2#|----------------------------------------------------------------|
|----------------------------------------------------------------|
|----------------------17-17-----------------19~~19~~19-17~~17~~-|
|---19~~~~19~~~~17h19---------19p17--19~~19----------------------|
|----------------------------------------------------------------|
|----------------------------------------------------------------|#/2t2##/2t1#
Freak Out!!                                  Le Freak...Chic
Composição: Alex Van Halen / Alice Cooper / Alison Oliveira / Angry Anderson / Angus Young / Axton / Bon Scott / Brian Johnson / Brian May / C. Hardin / Charles Manson / Chris Cornell / Chris Pittman / Chris Weber / Dallas Royal / David Lee Roth / Devo / DJ Ashba / Doc Neeson / Don Brewer / Durden / Ed Van Halen / Fred McDowell / Freddie Mercury / Gordon Leach / Izzi Stradlin / Izzy StradlinChristopher Garrison Weber / James Brown / Jimmy Webb / John Lennon / John Lennon Adaptado / Joshua Funk & Rob Janas / Larry Blackmon / Led Zeppelin / Malcolm Young / Mic Jagger / Michael Antony / Mick Cocks / N. Petty / Neil Young / Patty Griffin / Paul Mcartney / Paul McCartney / Pete Townshend / Peter Wells / Presley / Ramones / Roger Waters / Rolling Stones / Rose / Scott Weiland / Sergio George / Steve Rothery / Stradlin / Tom Petty / Tomi Jenkins / Tommy Stinson / Zal CleminsonColaboração e revisão: