The Garden

Guns N' Roses

Tom: G
Tabulature by Bruno Alves dos Santos Oliveira 




#1t1# Fig.1
#1t2#|------------------2-2-2---2-|------------------2-2-2---2-|
|------------------1-1-1---1-|------------------0-0-0---0-|
|------------------2-2-2---2-|------------------2-2-2---2-|
|-----------4p0----0---------|-----------3p0----0---------|
|-3h5p3---0--------------0---|-3h5p3---0--------------0---|
|-------6--------0-----------|-------6--------0-----------|#/1t2##/1t1#
 
#2t1#                                              (end fig.1)
#2t2#|----------------------0----|------------------2--2---2--|
|-------------------3--3--3-|------------------1--1---1--|
|-------------------3-----3-|------------------2--2---2--|
|------------3p0----0-----0-|-----------4p0--------------|
|--3h5p3---0----------------|--3h5p3---0------------0----|
|--------6--------0---------|-------6--------0-----------|#/2t2##/2t1#

#3t1# w/fig.1
#3t2#|------8----7/8\7-----------------------|
|-8/10------------7/8---\7--------------|
|---------------------------7\5--(5)/7--|
|---------------------------------------|
|---------------------------------------|
|---------------------------------------|#/3t2##/3t1#

verse: w/fig.1 ,3x 
then:
#4t1##4t2#|-----------------------------------------10------10-------/15-14-12-(12)/14-|
|----7-8\7-----7-8\7\-----/8-8-7--(7)\3/-----10--(10)--10--------------------|
|-7--------5-----------4-----------------------------------------------------|
|----------------------------------------------------------------------------|
|----------------------------------------------------------------------------|
|----------------------------------------------------------------------------|#/4t2##/4t1#

#5t1##5t2#|-(14)\12\10-10-------10------------------|
|----------------8/10----8-7--5/7---------|
|---------------------------------7\5-5/7-|
|-----------------------------------------|
|-----------------------------------------|
|-----------------------------------------|#/5t2##/5t1#

#6t1# Chorus: 4x
#6t2#|--------------------------------------------------------|
|--------------------------------------------------------|
|-5-7-7-7-7--(7)\-10-----9/10-10-10--7/9-9-9-9--(9)\-5-5-|
|-5/7-7-7-7--(7)\-10-----9/10-10-10--7/9-9-9-9--(9)\-5-5-|
|-3/5-5-5-5--(5)\--8--x--7/8---8--8--5/7-7-7-7--(7)\-3-3-|
|--------------------------------------------------------|#/6t2##/6t1#

#7t1##7t2#|------------------------------------------10-10-10/12-12/14--14/15\14-|
|-----7/8\7-----7-8\7----/8-8-7-(7)-(7)/10-----------------------------|
|-5/7-------5/7-------4------------------------------------------------|
|----------------------------------------------------------------------|
|----------------------------------------------------------------------|
|----------------------------------------------------------------------|#/7t2##/7t1#

#8t1##8t2#|-14\12-12-12-(12)/14-(14)\10-10--------------------------------|
|--------------------------------10/12-10-8-7-(7)---------------|
|--------------------------------------------------(7)-7\5-(5)/-|
|---------------------------------------------------------------|
|---------------------------------------------------------------|
|---------------------------------------------------------------|#/8t2##/8t1#

#9t1# Solo:
#9t2#|------------10--------------------------------------------------------------|
|-13fb~~~-10----13p10-13p12p10----10-13p10----10------10p13p10------10-13p10-|
|------------------------------13----------13----12fb----------12fb----------|
|----------------------------------------------------------------------------|
|----------------------------------------------------------------------------|
|----------------------------------------------------------------------------|#/9t2##/9t1#

#10t1##10t2#|---------------------------------------------------------------------------|
|------10------10--------------------------------------------------15----15-|
|-12fb----12fb----13p12p10-12-12-12p10------12----10~~-12-10-12/14----14----|
|----------------------------------------12----12---------------------------|
|---------------------------------------------------------------------------|
|---------------------------------------------------------------------------|#/10t2##/10t1#

#11t1##11t2#|-----------------13qb-------15hb-15-(15)p13----16p15-(15)p13-15-15hbr-15-13-|
|----15~~~~-15---------15-13-----------------15------------------------------|
|-14-----------14------------------------------------------------------------|
|----------------------------------------------------------------------------|
|----------------------------------------------------------------------------|
|----------------------------------------------------------------------------|#/11t2##/11t1#

#12t1##12t2#|-15fb-x-13qb----------------------------------10-10----10----------------------|
|-------------15--------------------------13fb-------13----10-------------------|
|----------------x-12fbrfb-10-12-10---------------------------13-10-12-12hbrp10-|
|-----------------------------------12-10---------------------------------------|
|-------------------------------------------------------------------------------|
|-------------------------------------------------------------------------------|#/12t2##/12t1#

#13t1##13t2#|----------------------------------------------------------------------------|
|-------------10-------------------------------------------------------------|
|-12-10-------10-------------------------------------------------------10----|
|-------12-10----12-10\9-10-9-----------------------------10-12p10-12-----12-|
|-----------------------------12p11-12-10hbrp8-10-8-10/12--------------------|
|----------------------------------------------------------------------------|#/13t2##/13t1#

#14t1##14t2#|-------------------------------------------10h12----10h12/15--17hb-17-16-15------------|
|---------------12----10-12p10----10-12h13--------13-------------------------17fb-17hb~-|
|-10-12qbp10-12----12----------12-------------------------------------------------------|
|---------------------------------------------------------------------------------------|
|---------------------------------------------------------------------------------------|
|---------------------------------------------------------------------------------------|#/14t2##/14t1#

#15t1##15t2#|----------------------------------------------------------------------------|
|-17p15----18-17h18p17p15----18-17h18p17p15----18--17h18p17p15----17fb-17-15-|
|-------14----------------16----------------16-----------------16------------|
|----------------------------------------------------------------------------|
|----------------------------------------------------------------------------|
|----------------------------------------------------------------------------|#/15t2##/15t1#

#16t1##16t2#|------20------20----------------------------------------------------------------------|
|-20fb----20fb----r20p18-20-18fb--r--17~-17-17hb-17-18p17----17------------------------|
|---------------------------------------------------------19----19-17------------------|
|---------------------------------------------------------------------19-17-15-17------|
|---------------------------------------------------------------------------------15fb-|
|--------------------------------------------------------------------------------------|#/16t2##/16t1#

#17t1# Verse: w/fig.1 x2
#17t2#|-----14-15\14/20--(20)\14-15\14-/19--(19)\14-15\14/17--(17)\-|
|-15----------------------------------------------------------|
|-------------------------------------------------------------|
|-------------------------------------------------------------|
|-------------------------------------------------------------|
|-------------------------------------------------------------|#/17t2##/17t1#
Composição: Del JamesColaboração e revisão: