busca

A Dona do Meu Coração

Henrique e Juliano

Tom: Db (forma dos acordes no tom de C) Capotraste na 1ª casa
Intro 2x: C G Am F

E|-----------4-4-----------------------------------------------|
B|---7-7-7-7------4-4-----4-7---------4--8----4--8---8---------|
G|---------------------7-------7----7-------7-----------7------|
D|--------------------------------7----------------------------|
A|-------------------------------------------------------------|
E|-------------------------------------------------------------|

E|-----------4-4-----------------------------------------------|
B|---7-7-7-7------4-4-----4-7--------4-------------------------|
G|---------------------7-------7---7---------------------------|
D|-------------------------------7-------7---------------------|
A|-------------------------------------------------------------|
E|-------------------------------------------------------------|


C                        G
Não sei se posso te encontrar de novo
         Am            F
Ainda e muito cedo pra poder te encarar
C                    G                       Am
Meu corpo ainda pede o seu de noite quando a solidão
       F
Deita comigo e ocupa o seu lugar
Am                        G          F
Não dá pra acreditar que tudo não passou de um engano,
 G
Uma grande ilusão
Am                      G                F       G
Porque você não vê que eu te amo e que é você a dona

Do meu coração

Refrão:
C              G                       Am
Se você quiser eu largo tudo e num segundo eu faço
      F
Tanta coisa pra te ver voltar
C              G                       Am
Vem viver o que sonhamos juntos pois sem ter você o
F          G
Meu coração pode parar (bis)

Clipes

Cifra Club Pro

Aproveite o Cifra Club com benefícios exclusivos e sem anúncios
Cifra Club Pro
Aproveite o Cifra Club com benefícios exclusivos e sem anúncios