busca

Às Vezes

Henrique e Juliano

Tom: D
Into: Bm  G  F#m  A9

Solo:
E|-5/7-5/7--7-9-5---5/7----------5/7|
B|----------------7-------7--10\7---|
G|----------------------------------|
D|----------------------------------|
A|----------------------------------|
E|----------------------------------|

Bm                                           D
Tá tão difícil de esconder o que eu estou sentindo
                                                   
Se eu te mostro que é amor pensa que eu tô fingindo
G                   Em                 Bm        G A9
E cada vez eu me apaixono mais, eu me apego mais

Bm                             D
E só de te olhar eu já estou sorrindo
                                        
E aquela louca vontade tá me consumindo
G              Em                    A9                     F#m A9
Virei escravo meu, eu troco qualquer coisa por um beijo seu

Refrão:
   Bm
Às vezes eu te amo muito mais que gosto
     G
E às vezes te desejo muito mais que posso
     D                                            A9   F#m A9
E às vezes eu me pego aqui chorando olhando a sua foto

   Bm
Às vezes eu te amo muito mais que gosto
     G
E às vezes te desejo muito mais que posso
     D                                            A9
E às vezes eu me pego aqui chorando olhando a sua foto
  F#m    A9       Bm G D A9 F#m A9
E eu não me controlo

Solo:
E|-5/7-5/7--7-9-5---5/7---7-9-5----------------|
B|----------------7-------------7-5/7---10\5-5-|
G|---------------------------------------------|
D|---------------------------------------------|
A|---------------------------------------------|
E|---------------------------------------------|

Bm                             D
E só de te olhar eu já estou sorrindo
                                        
E aquela louca vontade tá me consumindo
G              Em                    A9                     F#m A9
Virei escravo meu, eu troco qualquer coisa por um beijo seu

Refrão:
   Bm
Às vezes eu te amo muito mais que gosto
     G
E às vezes te desejo muito mais que posso
     D                                            A9   F#m A9
E às vezes eu me pego aqui chorando olhando a sua foto

   Bm
Às vezes eu te amo muito mais que gosto
     G
E às vezes te desejo muito mais que posso
     D                                            A9
E às vezes eu me pego aqui chorando olhando a sua foto
  F#m    A9       Bm G F#m A9
E eu não me controlo

E|-5/7-5/7--7-9-5---5/7-------------|
B|----------------7-------7--10\7-7-|
G|----------------------------------|
D|----------------------------------|
A|----------------------------------|
E|----------------------------------|

Refrão:
   Bm
Às vezes eu te amo muito mais que gosto
     G
E às vezes te desejo muito mais que posso
     D                                            A9   F#m A9
E às vezes eu me pego aqui chorando olhando a sua foto

   Bm
Às vezes eu te amo muito mais que gosto
     G
E às vezes te desejo muito mais que posso
     D                                            A9
E às vezes eu me pego aqui chorando olhando a sua foto
  F#m    A9       Bm G F#m A9
E eu não me controlo

Solo final:
E|-5/7-5/7--7-9-5---5/7-------------|
B|----------------7-------7--10\7-7-|
G|----------------------------------|
D|----------------------------------|
A|----------------------------------|
E|----------------------------------|

Clipes

Cifra Club Pro

Aproveite o Cifra Club com benefícios exclusivos e sem anúncios
Cifra Club Pro
Aproveite o Cifra Club com benefícios exclusivos e sem anúncios