busca

Quem Vai Lembrar

Henrique e Juliano

Tom: G (forma dos acordes no tom de C) Capotraste na 7ª casa
E|--------------------------------------------------|
B|--10/12--10~---8--10/12~-------8-----8h10--8------|
G|--------------------------7h9-----9---------------|
D|--------------------------------------------------|   
A|--------------------------------------------------|
E|--------------------------------------------------|

E|--------------10/12-------------------------------|
B|--10/12--10~---------12~-------8-----8h10--8------|
G|--------------------------7h9-----9---------------|
D|--------------------------------------------------|   
A|--------------------------------------------------|
E|--------------------------------------------------|

 C                  G
A gente perde tempo curtindo besteira
 Am                  F         G
Escrevendo asneira no computador

 C                  G
E esquece da hora, passa a noite inteira
 Am                    F        G
E quando se da conta a vida passou

 C                   G
A gente perde tempo mandando mensagem
 Am                 F      G
Falando bobagens pelo celular

 C                G
Fica xeretando olhando a vida alheia
 Am                 F              G
E da nossa vida quem que vai cuidar

Refrão:
 C      G            Am
Quem é que vai lembrar
 F                          G
Se der blackout se a luz faltar

 C       G         Am
Quem é que vai contar
              F               G
As coisas simples ficaram pra lá
Solo:
E|--------------------------------------------------|
B|--10/12--10~---8--10/12~-------8-----8h10--8------|
G|--------------------------7h9-----9---------------|
D|--------------------------------------------------|   
A|--------------------------------------------------|
E|--------------------------------------------------|


 C               G           Am
Ta faltando amor faltando União
               F           G
Esqueceram a cuia e o chimarrão

 C          G            Am
Onde anda o truco do domingo
         F               G
Cadê o queijo e o macarrão

 C               G
Um dedinho de proza
            Am
Um voto de fé
           F            G
Ta faltando o bule e o café

 C          G              Am
Onde anda a dança da capoeira
     F            G
Cadê a roda do tereré

Refrão:
 C      G            Am
Quem é que vai lembrar
 F                          G
Se der blackout se a luz faltar

 C       G         Am
Quem é que vai contar
              F               G
As coisas simples ficaram pra lá
Solo 2x:
E|--------------------------------------------------|
B|--10/12--10~---8--10/12~-------8-----8h10--8------|
G|--------------------------7h9-----9---------------|
D|--------------------------------------------------|
A|--------------------------------------------------|
E|--------------------------------------------------|

 C      G            Am
Quem é que vai lembrar
 F                          G
Se der blackout se a luz faltar

 C       G         Am
Quem é que vai contar
              F               G
As coisas simples ficaram pra lá
E|--------------------------------------------------|
B|--10/12--10~---8--10/12~-------8-----8h10--10h12--|
G|--------------------------7h9-----9---------------|
D|--------------------------------------------------|
A|--------------------------------------------------|
E|--------------------------------------------------|

Clipes

Cifra Club Pro

Aproveite o Cifra Club com benefícios exclusivos e sem anúncios
Cifra Club Pro
Aproveite o Cifra Club com benefícios exclusivos e sem anúncios