busca

Ai Que Saudade

João Bosco e Vinícius

Tom: C
(intro) F C Dm F C F
                        F
E |--12-12-12-12--10--8--8------8-----8----8---10-8
B |------------------------------------------------
G |--12-12-12-12--10--10-10--10----10----10-10-----
D |------------------------------------------------
A |------------------------------------------------
E |------------------------------------------------

                        C
E |--12-12-12-12--10--8---------------------------
B |----------------------8----8---8--8--10-8------
G |--12-12-12-12--10--10-9--9---9---9-9-----------
D |-----------------------------------------------
A |-----------------------------------------------
E |-----------------------------------------------

                            Dm        F
E |--12-12-12-12--10--8-10--10-12-13--------------
B |-----------------------------------------------
G |--12-12-12-12--10--9-10--12-12-14--------------
D |-----------------------------------------------
A |-----------------------------------------------
E |-----------------------------------------------

                       C           F
E |--13-13-13-12/13-12--10-8----------------------
B |---------------------------13--13--13----------
G |--14-14-14-14----12--10-9--10--10--10----------
D |-----------------------------------------------
A |-----------------------------------------------
E |-----------------------------------------------

C
Você foi embora e me deixou sem entender
F
A saudade é tanta você não sabe mas me fez sofrer
Dm                       F               G
Você foi tudo em minha vida, não é fácil esquecer
C
Eu me dediquei e fiz de tudo por você
F
Deixei tudo de lado e os meus planos eu fiz com você
Dm                       F                       G
Agora estou num beco sem saída já não sei o que fazer

(refrão 2x)
                  F
Ai que saudade me dá, de sentir o seu cheiro ganhar o seu beijo
                  C
Ai que vontade me dá, de ficar do seu lado ganhar seu abraço
                   Dm  (Em) F
Ai que saudade me da   ooooô
                   C (F Em Dm) C
Ai que saudade me dá

(repete tudo do inicio)

( F Dm C )

Clipes

Cifra Club Pro

Aproveite o Cifra Club com benefícios exclusivos e sem anúncios
Cifra Club Pro
Aproveite o Cifra Club com benefícios exclusivos e sem anúncios