busca

Ciúme Lento

João Bosco e Vinícius

Tom: Eb
 [Final] Eb  Bb  Cm  G#

E|-------------------------------------------|
B|-3/4-4-4-4-----------------4-3-4/6---------|
G|----------------3-3-3----------------------|
D|-------------------------------------------|
A|-------------------------------------------|
E|-------------------------------------------|

E|-------------------------------------------|
B|-3/4-4-4-4-----------------4/8-6-6--6-4-3--|
G|------------3-3-3--------------------------|
D|-------------------------------------------|
A|-------------------------------------------|
E|-------------------------------------------|

Eb                 Bb                    Cm        G#
Eu não tenho pressa de retribuir a sua gentileza
Eb                      Bb
Nosso melhor momento, você me pediu um tempo
    Cm                    G#
E gastou com outra pessoa

     Eb                 Bb
Tudo bem, a gente se esbarra por aí
     Cm               G#
Tudo bem, só cuidado pra não cair

          Eb                      Bb
Quando me ver, cê vai morrer de saudade
               Cm                   G#
Vai ter alguém comigo e eu só de sacanagem
              Eb                      Bb
Vou fazer com ela o que eu fazia com você
                  Cm                    G#
Só que bem mais caprichado, pra você sofrer
           Eb   Bb
De ciúme lento
               Cm
Doses de arrependimento
         G#
De ciúme lento

[Final] Eb  Bb  Cm  G#

Clipes

Cifra Club Pro

Aproveite o Cifra Club com benefícios exclusivos e sem anúncios
Cifra Club Pro
Aproveite o Cifra Club com benefícios exclusivos e sem anúncios