busca

Quero Provar Que Te Amo

João Bosco e Vinícius

Tom: E
Introdução:F#m A(A9) E C#m  F#m A(A9) E 


e|--7-12-7-12----5-4-2----2---4-------2--4-----2--4------|-7-7-5-5-4-4---2-2h4-------2-2h4-------2-2h4----2-4-2-4-2-4-|
B|--9-9--9-9-----------5--------2---5-----1--5-----------|9----7-7-5-5-5-------2~-5--------1~--5----------------------|
G|--------------------------------------------------4----|---------------------------------------------4~-------------|

F#m           A(A9)   E    C#m
Como te desejo, meu amor
F#m                A(A9)                   E
Preciso te encontrar, preciso de você seja como for
    F#m                  A(A9)        E       C#m
Quero tocar no seu corpo, beijar a sua boca
F#m                  A(A9)      E
Nada mais é como antes, só saudade louca
E                                  F#m
Foi embora e me deixou aqui, nesta solidão
    A(A9)         B7                        E
Não pensou em nada, nem como ficaria meu coração
E                                    F#m
Se te dei motivo estou arrependido, vem e volte pra ficar
 A(A9)            B7                    E
Só mais uma chance, mais uma vez eu quero te provar

e|--2-4-7-5-4-2----------|
B|--------------5-5/7----|
G|-----------------------|

REFRÃO

(Riff1)
e|--9/12-12-12-11-9-9/11\9--|
B|--------------------------|
G|--------------------------|
 
        F#m           A(A9)                E       C#m (RIFF1)
Quero provar que te amo, to precisando ter você aqui
F#m                     A(A9)        B7                    E 
Sinto sua falta todo instante, vêm cá ficar mais junto de mim

        F#m           A(A9)                E       C#m
Quero provar que te amo, to precisando ter você aqui
F#m                     A(A9)        B7                    E     F#m
Sinto sua falta todo instante, vêm cá ficar mais junto de mim
    
                      F#m              A(A9)     E        C#m                         F#m          A(A9)            E
 
e|--7-12-7-12----5-4-2----2---4-------2--4-----2--4------|-7-5-4-5-4-----4-5-7-5-4---------4-------2-2h4-------2-2h4----2-4-2-4-2-4-|
B|--9-9--9-9-----------5--------2---5-----1--5-----------|------7---7-5-7----------7-5-5/7---2---5-------1~--5----------------------|
G|--------------------------------------------------4----|----------------------------------------------------------4~--------------|

E                                  F#m
Foi embora e me deixou aqui, nesta solidão
    A(A9)         B7                        E
Não pensou em nada, nem como ficaria meu coração
E                                    F#m
Se te dei motivo estou arrependido, vem e volte pra ficar
 A(A9)            B7                    E
Só mais uma chance, mais uma vez eu quero te provar

       F#m           A(A9)                E       C#m (RIFF1)
Quero provar que te amo, to precisando ter você aqui
F#m                     A(A9)        B7                    E 
Sinto sua falta todo instante, vêm cá ficar mais junto de mim

        F#m           A(A9)                E       C#m
Quero provar que te amo, to precisando ter você aqui
F#m                     A(A9)        B7                    E     
Sinto sua falta todo instante, vêm cá ficar mais junto de mim

Clipes

Cifra Club Pro

Aproveite o Cifra Club com benefícios exclusivos e sem anúncios
Cifra Club Pro
Aproveite o Cifra Club com benefícios exclusivos e sem anúncios