busca

Tão Distante Tão Perto

João Bosco e Vinícius

Tom: D
Intro 2x: Bm G D A F#


E|-----------------------------------------------------------------------------------------------------|
B|-----2--3--5/7--7--7-------2--3--5/7--7--7-----2--3--7-7-7---5-5-5---3-3-3--2--3--5--3--2------------|
G|--4---------------------4-------------------4--------------------------------------------------------|
D|-----------------------------------------------------------------------------------------------------|
A|-----------------------------------------------------------------------------------------------------|
E|-----------------------------------------------------------------------------------------------------|

E|-----------------------------|
B|--2h3p2----2/3---------------|
G|--------4------4-------------|
D|-----------------------------|
A|-----------------------------|
E|-----------------------------|


Bm
Não brinque com meu coração
     G
Não quero mais me machucar
   D
Me entreguei todo a você
A                    F#
E você só me fez chorar

Bm
Difícil é conviver assim
        G
Tão distante e tão perto de mim
   D
Desejo de te esquecer
          A                  F#
Mas a saudade faz lembrar você

(Refrão)
        Bm                  G
Se eu pudesse ter a chance de te amar
        D                        A  F#
Eu mudaria o mundo pra te encontrar
        Bm                  G
Se eu pudesse ter a chance de te amar
        D                     A  F#
Devolveria o brilho do seu olhar
         Bm
Do seu olhar

(Repete tudo)

(Refrão)

         Bm
Do seu olhar

Solo:Bm G D A F# B


E|-----------------------------------------------------------------------------------------------------|
B|-----2--3--5/7--7--7-------2--3--5/7--7--7-----2--3--7-7-7---5-5-5---3-3-3--2--3--5--3--2------------|
G|--4---------------------4-------------------4--------------------------------------------------------|
D|-----------------------------------------------------------------------------------------------------|
A|-----------------------------------------------------------------------------------------------------|
E|-----------------------------------------------------------------------------------------------------|

E|-------------------7-7-7-5--------------------------|
B|--2h3p2----2/3---------------7-7h8p7-7---2h3p2------|
G|--------4------4-------------------------------4----|
D|----------------------------------------------------|
A|----------------------------------------------------|
E|----------------------------------------------------|

Clipes

Cifra Club Pro

Aproveite o Cifra Club com benefícios exclusivos e sem anúncios
Cifra Club Pro
Aproveite o Cifra Club com benefícios exclusivos e sem anúncios