busca

Os Dias Vão

Maria Cecília e Rodolfo

Tom: D
Intro: G  Bm  G  Bm  A
E|-------------------------------------------5----------------------------5-5~-|
B|--5/7-5-3~--5/7--5-3--3-5-7-5-3---3-5-5/7-----7-5-5/7-5-3---3-5-5/7-5--------|
G|--------------------------------4-------------------------4------------------|
D|-----------------------------------------------------------------------------|
A|-----------------------------------------------------------------------------|
E|-----------------------------------------------------------------------------|


  G                                     Bm
Te perdi, eu não sei direito o que aconteceu
                                   G
Só me dei conta quando o dia amanheceu
      Em                       A
Eu acordei, olhei pro lado e não te vi
      G                                   Bm
Abandonado, triste num canto pensando na gente
                                 G
A culpa é minha, podia ser diferente
          Em                       A       G A
Não dei valor e agora sei que te perdi

Refrão:
        D              A               Bm
Os dias vão e é só saudade de você no coração
     F#m                         G
O telefone que não sai da minha mão
              Em                       A
Eu conto as horas pra você voltar pra mim
G    A   D
Vou te amar
      A                            Bm
Não importa o quanto eu tenha que esperar
         F#m                     G       Em     A
Deixei a porta aberta pra você entrar de novo aqui, no
       G
meu coração

Intro: G  Bm  G  Bm  A

      G                                   Bm
Abandonado, triste num canto pensando na gente
                                 G
A culpa é minha, podia ser diferente
          Em                       A       G A
Não dei valor e agora sei que te perdi

Refrão:
        D              A               Bm
Os dias vão e é só saudade de você no coração
     F#m                         G
O telefone que não sai da minha mão
              Em                       A
Eu conto as horas pra você voltar pra mim
G    A   D
Vou te amar
      A                            Bm
Não importa o quanto eu tenha que esperar
         F#m                     G       Em     A
Deixei a porta aberta pra você entrar de novo aqui, no
       D
meu coração
 ( D  G A )
E|-5--7-5--------------------------2-|
B|-----------7-5-3-----------------3-|
G|-----------------4-2-------------2-|
D|---------------------4-2---0-----0-|
A|-----------------------------------|
E|-----------------------------------|


Refrão:
        D              A               Bm
Os dias vão e é só saudade de você no coração
     F#m                         G
O telefone que não sai da minha mão
              Em                       A
Eu conto as horas pra você voltar pra mim
G    A   D
Vou te amar
      A                            Bm
Não importa o quanto eu tenha que esperar
         F#m                     G       Em     A
Deixei a porta aberta pra você entrar de novo aqui, no
       G
meu coração

( G  Bm  G  A  D )

Clipes

Cifra Club Pro

Aproveite o Cifra Club com benefícios exclusivos e sem anúncios
Cifra Club Pro
Aproveite o Cifra Club com benefícios exclusivos e sem anúncios