busca

Pennyroyal Tea

Nirvana

Tom: C
   Am          Am          G            G
|-----0-----------0-----------3---3--------3---3-------|
|-1---1--1----1---1--1--------3---3--------3---3-------|
|-2---2--2-2--2---2--2-2------0---0-0------0---0-------|
|-2------2-2--2------2-2--0---------0--0---------------|
|-0-0--0------0-0--0------2------------2---------------|
|-------------------------3-3---3------3-3---3---3-1-0-|(2x)

|------------------------------------------------------|
|------------------------------------------------------|
|-5--5--5-5-5-5--7-7-7-7-7--3--3-3-3-3-3-3-3-3-3-3-3-3-|
|-5--5--5-5-5-5--7-7-7-7-7--3--3-3-3-3-3-3-3-3-3-3-3-3-|
|-3--3--3-3-3-3--5-5-5-5-5--1--1-1-1-1-1-0-1-0-1-0-1-0-|
|------------------------------------------------------| (3x)

                            |--Palm-Mute---------------|
|------------------------------------------------------|
|------------------------------------------------------|
|-5--5--5-5-5-5--7-7-7-7-7--3--3-3-3-3-3-3-3-3-3-3-3-3-|
|-5--5--5-5-5-5--7-7-7-7-7--3--3-3-3-3-3-3-3-3-3-3-3-3-|
|-3--3--3-3-3-3--5-5-5-5-5--1--1-1-1-1-1-1-1-1-1-1-1-1-|
|------------------------------------------------------| (1x)

(solo)
|-----------------------------------3~-3-3-1-0---------------|
|----------------------------------------------3-3-1-0-------|
|-----2b~~-2-3-2-----2b~~-2-3-2------------------------3p2p0-|
|---2--------------2-----------------------------------------|
|-0--------------0----------------2--------------------------|
|-------------------------------3----------------------------|

(pós-solo)
|------------------------------------------------------|
|------------------------------------------------------|
|-5--5--5-5-5-5--7-7-7-7-7--3--3-3-3-3-3-3-3-3-3-3-3-3-|
|-5--5--5-5-5-5--7-7-7-7-7--3--3-3-3-3-3-3-3-3-3-3-3-3-|
|-3--3--3-3-3-3--5-5-5-5-5--1--1-1-1-1-1-0-1-0-1-0-1-0-|
|------------------------------------------------------| (1x)

                            |--Palm-Mute---------------|
|------------------------------------------------------|
|------------------------------------------------------|
|-5--5--5-5-5-5--7-7-7-7-7--3--3-3-3-3-3-3-3-3-3-3-3-3-|
|-5--5--5-5-5-5--7-7-7-7-7--3--3-3-3-3-3-3-3-3-3-3-3-3-|
|-3--3--3-3-3-3--5-5-5-5-5--1--1-1-1-1-1-1-1-1-1-1-1-1-|
|------------------------------------------------------| (1x)

Clipes

Cifra Club Pro

Aproveite o Cifra Club com benefícios exclusivos e sem anúncios
7 dias grátis
Cifra Club Pro
Aproveite o Cifra Club com benefícios exclusivos e sem anúncios
7 dias grátis