busca

Bro Hymn Live

Pennywise

bro hymn (live)
tabbed by: punkbass479

still no correct versions, so here's everything, you can use parts of this for the album version too.

x: palm mute (kinda hard on bass, but give it your best shot)
~: let note ring

"this sons is called 'bro hymn'", then play (riff #1):
G|--------------------------------------------------------------|
D|---------------33-22---------------3-3333333333---------------|
A|-5-55555555555-------3-33333333333--------------3-33333333333-|
E|--------------------------------------------------------------|

G|---------------------------|
D|-33-22---------------------|
A|-------5-55555555-55555555-|
E|---------------------------| play this for most of the song

2nd verse:
G|-----------------------------------------------------------------------|
D|---------------2-3---------------3-xxxxxxxx------3-2-------------------|
A|-5-xxxxx-5-x-5-----3-xxxxx-3-x-3------------3-xx-----5-xxxxxxx-xxxxxxx-|
E|-----------------------------------------------------------------------|
repeat til the 'WHOA's 

riff before ending:
G|-----------------------------------------------------|
D|------------------------3~-2~------------------------|
A|-5--5-5-5-5-5-5-5-5-5-5-------3--3-3-3-3-3-3-3-3-3-3-|
E|-----------------------------------------------------|

G|------------------------------------------------------------------|
D|-3--3-3-3-3-3-3-3-3-3-3------------------------3~-2~--------------|
A|------------------------3--3-3-3-3-3-3-3-3-3-3-------5-5555555555-|
E|------------------------------------------------------------------|

ending:
G|----------------------------------------------------------|
D|----------3~--2~-----------3~------------------3~--2~-----|
A|-5~---------------3~----------------3~-----------------5~-|
E|----------------------------------------------------------|

i'm almost certain its perfect, IM me @ punkbass479 for feedback
pretty easy, you'll get it.

Clipes