busca

Did You Really

Pennywise

tabbed by: ryan b

intro/verse:
A-|-2-2-2-------------------2-2-2-------7-7-7-5-7-
E-|-------3-3-3-0-0-0-3-3-3-------3-3-3-----------

pre-chorus
A-|-2-2-2-2-5-5-5-5-----------------
E-|-----------------3-3-3-3-5-5-5-5-

chorus:
A-|-----------------2-2-2-2-2-2-2-2-----------------2-----------------------
E-|-2-2-2-2-2-2-2-2-----------------2-2-2-2-2-2-2-2-------2-2-2-2-2-2-2-2---

A-|-2-2-2-2-2-2-2-2---------------------------------2-2-2-------------------
E-|-----------------0-0-0-0-0-0-0-0-2-2-2-2-2-2-2-2-------3-3-3-0-0-0-0-0---

A-|-2-2-2-----------------2-2-2-----------------------------------
E-|-------3-3-3-0-0-0-0-0-------3-3-3-0-0-0-0-0-2-2-2-2-2-2-2-2-2-

bridge:
A-|-2-2-2-2-2-5-----------------------------------------
E-|-------------3-3-3-3-3-5-0-0-0-0-0-5-3-3-3-3-5-5-5-5-

Clipes