busca

Freebase

Pennywise

Tom: F
From: Rambozo 

               verse:
e-|-----------|---------------------------------------------------------
B-|-----------|---------------------------------------------------------
G-|-8----8----|-------3-5-5-5---------------3-5-3-5-8-8-8-------3-5-5-5-
D-|-8----8----|-5-5-5-3-5-5-5-3-3-3-3-5-5-5-3-5-3-5-8-8-8-5-5-5-3-5-5-5-
A-|-6----6----|-5-5-5-1-3-3-3-3-3-3-3-5-5-5-1-3-1-3-6-6-6-5-5-5-1-3-3-3-
E-|-----------|-3-3-3---------1-1-1-1-3-3-3---------------3-3-3---------

                                 chorus:
e-|-----------------------------|---------------------------------
B-|-----------------------------|---------------------------------
G-|---------------3-5-3-5-8-8-8-|-3-3-3-3-5-5-5-5-----------------
D-|-3-3-3-3-5-5-5-3-5-3-5-8-8-8-|-3-3-3-3-5-5-5-5-5-5-5-5-5-5-5-5-
A-|-3-3-3-3-5-5-5-1-3-1-3-6-6-6-|-1-1-1-1-3-3-3-3-5-5-5-5-5-5-5-5-
E-|-1-1-1-1-3-3-3---------------|-----------------3-3-3-3-3-3-3-3-


e-|---------------------------------------------------------------------
B-|---------------------------------------------------------------------
G-|-3-3-3-3-5-5-5-5-----------------3-3-3-3-5-5-5-5-8-8-8-8-10-10-10-10-
D-|-3-3-3-3-5-5-5-5-5-5-5-5-5-5-5-5-3-3-3-3-5-5-5-5-8-8-8-8-10-10-10-10-
A-|-1-1-1-1-3-3-3-3-5-5-5-5-5-5-5-5-1-1-1-1-3-3-3-3-6-6-6-6--8--8--8--8-
E-|-----------------3-3-3-3-3-3-3-3-------------------------------------


e-|-----------------------------|
B-|-----------------------------|
G-|-3-3-3-3-5-5-5-5-3-3-3-3-2-2-|
D-|-3-3-3-3-5-5-5-5-3-3-3-3-2-2-|
A-|-1-1-1-1-3-3-3-3-1-1-1-1-0-0-|
E-|-----------------------------|
 transcribed by rambozo *

Clipes

Cifra Club Pro

Aproveite o Cifra Club com benefícios exclusivos e sem anúncios
7 dias grátis
Cifra Club Pro
Aproveite o Cifra Club com benefícios exclusivos e sem anúncios
7 dias grátis