busca

Land of the Free?

Pennywise

Tom: E
Abaixar Meio-Tom

Riff 1 (intro)
eb|------------------------|------------------
Bb|------------------------|------------------
Gb|.------------------5-5-.|------------------
Db|.-2-2--2-2-2--2-2--5-5-.|-2--(2)--2--(2)---
Ab|--2-2--2-2-2--2-2--3-3--|-2--(2)--2--(2)---
Eb|--0-0--0-0-0--0-0-------|-0--(0)--0--(0)---
    |_______________|
Heavy, heavy palm mute


eb------0-----------------------0-----------------
Bb------0-----------------------0-----------------
Gb------1--5-5------------------1--5-5--7-7-7-7---
Db-2-2-----5-5--5-5--7-7---2-2-----5-5--7-7-7-7---
Ab-2-2-----3-3--5-5--7-7---2-2-----3-3--5-5-5-5---
Eb-0-0----------3-3--5-5---0-0--------------------

Verse: 
eb|--------------------------------
Bb|--------------------------------
Gb|-------------------5-5----------
Db|--2-2--2-2-2--2-2--5-5-5-5-7-7--
Ab|--2-2--2-2-2--2-2--3-3-5-5-7-7--
Eb|--0-0--0-0-0--0-0------3-3-5-5--

eb|---------------------------------
Bb|---------------------------------
Gb|-------------------5-5--7-7-7-7--
Db|--2-2--2-2-2--2-2--5-5--7-7-7-7--
Ab|--2-2--2-2-2--2-2--3-3--5-5-5-5--
Eb|--0-0--0-0-0--0-0----------------

Chorus chords
eb---------------------------------
Bb---------------------------------
Gb-----5-------7-------5-------4---
Db-2---5---5---7---2---5---5---4---
Ab-2---3---5---5---2---3---5---2---
Eb-0-------3-------0-------3-------

Bridge (both the strummed AND the palm muted part-they are the same chords)
eb----------------------
Bb----------------------
Gb--9---7---5---4-------
Db--9---7---5---4-------
Ab--7---5---3---2-------
Eb----------------------

Solo
eb------------------------------------------------------
Bb-------------------------------------------12~--------
Gb-9~---9~---9~---9\---9~---9~---12--11--12-------------
Db------------------------------------------------------
Ab------------------------------------------------------
Eb------------------------------------------------------



LETRA


Land of the free and we're united 
Make our destiny, we take control. Yeah! 
Never divided, we got the power 
And we'll never be divided we fall. Oh yeah! 

Land of the free, free to conspire, to control destiny. Oh yeah! 
You're gonna see, no use resisting you live in the land of the free 
Free to control your life 
Land of the free 
Free to control your mind 
Land of the free 

Land of the free (democracy), united nations of hypocrisy 
Profit's our goal, we're incorporated 
It's big business and oil companies controlling us all. Oh yeah! 

Land of the free, free to conspire, to control destiny. Oh yeah! 
You're gonna see, no use resisting you live in the land of the free 
Free to control your life 
Land of the free 
Free to control your mind 
Land of the free 

I pledge allegiance to the flag of the United States Of Hypocrisy
and to the republic for which it stand. One nation without liberty
and justice for all. ( One day we'll seize control, 3000 AD and
justice for all ) *Parece que ele fala isso*

Land of the free
Free to control your life 
Land of the free 
Free to control your mind 
Land of the free 
Free to control your life 
Land of the free 
Free to control your mind 
Land of the free 

Yeah right! 

Clipes

Cifra Club Pro

Aproveite o Cifra Club com benefícios exclusivos e sem anúncios
Cifra Club Pro
Aproveite o Cifra Club com benefícios exclusivos e sem anúncios