busca

Still Can Be Great

Pennywise

Riff 1

G --------------------------------------------------|
D --------------------------------------------------|
A -8-6-8--6-4-6----8-6-8--6-4-6--8------------------|
E --------------1-----------------------------------|

Riff 2

G --------------------------------------------------|
D --------------------------------------------------|
A --------------4-4-4--4-4-4---6--------8-8-8-8-----|
E -1-1-1--4-4-4--------------4---4-2----------------|

Verse 1

G --------------------------------------------------|
D --------------------------------------------------|
A ---------------------------4-4-4-4-4--4-4-4-4-4-4-|
E -1-1-1-1-1-1--1-1-1-1-1-4-------------------------|

G --------------------------------------------------|
D --------------------------------------------------|
A ---6------4---------8-8-8-8-----------------------|
E -4----4-2----2-1----------------------------------|

thats All :)

Clipes