busca

Watch Me As I Fall

Pennywise

Album:Straight Ahead
tabbed by:Barraza		(*)

Intro/Verse	      Repeat 4x
G:----------------------------|
D:--------------------33------|
A:--------55555-11111---33----|
E:--33333---------------------|


Chorus							
G:---------------------------------------------------------------------|
D:----------------------------------------------------------(3)(3)-----|
A:-------3/55555-3/11111--333333--------3/55555-3/11111-3333------3333-|
E:-33333-------------------------33333---------------------------------|

Change					Play 2x
G:-----------------------------------------------|
D:----------------------------------3------------|.
A:-------5---1---3---1--------5--1-----3---------|.
E:---3--------------------3----------------------|

You can work out when to play what.

For questions, comments or corrections please e-mail me.

icq-42608726

Clipes

Cifra Club Pro

Aproveite o Cifra Club com benefícios exclusivos e sem anúncios
7 dias grátis
Cifra Club Pro
Aproveite o Cifra Club com benefícios exclusivos e sem anúncios
7 dias grátis