Everything Ends

Slipknot

E
123
022100
Tom: G
Drop A: A E A D F# B

( )=harmonics

you are wrong......

#1t1#Riff A x2
#1t2#E|-----------------------------------------------------------------|
B|-----------------------------------------------------------------|
G|-----------------------------------------------------------------|
D|-----------------------------------------------------------------|
A|-----------------------------------------------------------------|
D|-1010101010101010-9-9-9-9-9-9-9-9-3-3-3-3-3-3-3-3-6-6-6-6-6-6-6-6|#/1t2##/1t1#

#2t1##2t2#E|-----------------------------------------------------------------|
B|-----------------------------------------------------------------|
G|-----------------------------------------------------------------|
D|-----------------------------------------------------------------|
A|-----------------------------------------------------------------|
D|-5-5-5-5-5-5-5-5-5-5-5-5-5-5-3-3-1-1-1-1-1-1-1-1-1-1-1-1-1-1-1-1-|#/2t2##/2t1#

harmonic leads (w/ wah as filter) over Riff a 2nd time

#3t1##3t2#E|-----------------------------------------------------------------|
B|-----------------------------------------------------------------|
G|---(3)---(2.3)-(3)---(2.3)-(3)--(2.3)-(3)-----(3)-(3)-(3)-(3)----|
D|-----------------------------------------------------------------|
A|-----------------------------------------------------------------|
D|-----------------------------------------------------------------|#/3t2##/3t1#

Interlude: Riff C x2

#4t1##4t2#E|-----------------------------------------------------------------|
B|-----------------------------------------------------------------|
G|-----------------------------------------------------------------|
D|-----------------------------------------------------------------|
A|-------------------------------------------------1-1--1----------|
D|-0-1-4-1-0--0-1-4-1-0--0--4~~-0-6--0--0-1-4-1-0--1-1--1----------|#/4t2##/4t1#

#5t1#Riff D x2
#5t2#E|-----------------------------------------------------------------|
B|-----------------------------------------------------------------|
G|-----------------------------------------------------------------|
D|-----------------------------------------------------------------|
A|--------------------------4-----6----------------1-1--1----------|
D|-0-1-4-1-0--0-1-4-1-0--0--4--0--6--0--0-1-4-1-0--1-1--1----------|#/5t2##/5t1#

Verses: Fig 1. x2

#6t1#pm
#6t2#E|-----------------------------------------------------------------|
B|-----------------------------------------------------------------|
G|-----------------------------------------------------------------|
D|-----------------------------------------------------------------|
A|-0-1-2-0-0-1-2-----1-2-----1-2---0-1-2-0-0-1-2-----1-2-----1-2---|
D|-0-1-2-0-0-1-2-----1-2-----1-2---0-1-2-0-0-1-2-----1-2-----1-2---|#/6t2##/6t1#

Fig 1 w/o pm x2

Interlude:

#7t1##7t2#E|-----------------------------------------------------------------|
B|-----------------------------------------------------------------|
G|-----------------------------------------------------------------|
D|-----------------------------------------------------------------|
A|-----------------------------------------------------------------|
D|-0-0-0-6---0-6--0-0-0-2-2-2-1-1-0-0-0-6---0-6--0-0-0-2-2-2-1-1---|#/7t2##/7t1#

Chorus: Riff E

#8t1##8t2#E|-----------------------------------------------------------------|
B|-----------------------------------------------------------------|
G|-----------------------------------------------------------------|
D|-----------------------------------------------------------------|
A|-----------------------------------------------------------------|
D|-1010101010101010-9-9-9-9-9-9-9--3-3-3-3-3-3-3-3-6-6-6-6-6-6-6-6-|#/8t2##/8t1#

#9t1##9t2#E|-----------------------------------------------------------------|
B|----8-------------------------------4----------------------------|
G|----7-------------------------------3----------------------------|
D|----5-------------------------------1----------------------------|
A|----5-------------------------------1----------------------------|
D|-5--5----------------------3--3--1--1----------------------1/----|#/9t2##/9t1#

Interlude:

#10t1#gtr 1
#10t2#E|------------------------------|     |------------------------------|
B|------------------------------|     |------------------------------|
G|------------------------------|     |------------------------------|
D|------------------------------| x3  |------------------------------|
A|-4--3--6--1--0----------------|     |-0-3(p.h)~~~~-----------------|
D|-4--3--6--1--0--4(p.h)~3(p.h)~|     |-0-----------3(ph.)~~~~----x--|#/10t2##/10t1#

#11t1#gtr2.
#11t2#E|------------------------------|     |------------------------------|
B|------------------------------|     |------------------------------|
G|------------------------------|     |------------------------------|
D|------------------------------| x3  |------------------------------|
A|-4--3--6--1--0----------------|     |-0----------------------------|
D|-4--3--6--1--0--4p3---4p3-x---|     |-0----------------------------|#/11t2##/11t1#

Fig 4.

#12t1##12t2#E|-----------------------------------------------------------------|
B|-----------------------------------------------------------------|
G|-----------------------------------------------------------------|
D|-----------------------------------------------------------------|
A|-4--3--6--1--0--2--x-3--x-4--3--6--1--0--2--x-3--x---------------|
D|-4--3--6--1--0--2--x-3--x-4--3--6--1--0--2--x-3--x---------------|#/12t2##/12t1#
Composição: Colaboração e revisão: gustavo marquesfernando gonçalves