Opium Of The People

Slipknot

Tom: G
[Intro] 
Mick:
#1t1##1t2#-------------------------------------|
-------------------------------------|
-------------------------------------|
--0------------------0------------0--|  X2
--0------------------0------------0--|
--0------------------0------------0--|    (Intro Played Simultaneously)#/1t2##/1t1#
#2t1#James:
#2t2#----13-14-13-14-13-14--13-14-13-14-----|
---------------------------------------|
---------------------------------------|
---------------------------------------|  X2  
---------------------------------------|
---------------------------------------|#/2t2##/2t1#

then,

#3t1#Mick:
#3t2#----------------------------------------------|
----------------------------------------------|
----------------------------------------------|
--0-3--4--3--4--3--4--3--4--3--4--3--4--3--4--| 
--0-------------------------------------------|
--0-------------------------------------------|#/3t2##/3t1#
#4t1#James:
#4t2#----13-14-13-14-13-14-13-14-13-14-13-14-13-14--|
-----------------------------------------------|
-----------------------------------------------|
-----------------------------------------------|  
-----------------------------------------------|
-----------------------------------------------|#/4t2##/4t1#

#5t1#M&J:
#5t2#--9-9-9-9-11-13-14-16-14-13-11-9-9-9-9-11-13-14-16-14-13--|
----------------------------------------------------------|
----------------------------------------------------------|
----------------------------------------------------------|
----------------------------------------------------------|
----------------------------------------------------------|#/5t2##/5t1#
#6t1#M&J:
#6t2#--------------------|
--------------------|
--------------------|
--0-3434340-34340---|X4
--0-3434340-34340---|
--0-3434340-34340---|
  . ....... .....#/6t2##/6t1#
#7t1#Mick:
#7t2#---------------------------------------------|
---------------------------------------------|
---------------------------------------------|
---3--4--3--4--3--4--3--4--3--4--3--4--3--4--| 
---------------------------------------------|
---------------------------------------------|#/7t2##/7t1#
#8t1#James:
#8t2#---13-14-13-14-13-14-13-14-13-14-13-14-13-14--|
----------------------------------------------|
----------------------------------------------|
----------------------------------------------|  
----------------------------------------------|
----------------------------------------------|#/8t2##/8t1#

#9t1#M&J:
#9t2#--16-14-13-11-14-13-11-9----------------|
----------------------------------------|
----------------------------------------|
----------------------------------------|
----------------------------------------|
---------------------------12////////0--|#/9t2##/9t1#

[Pre-Verse]
M&J:
#10t1##10t2#---------------------------------------------------------------------------|
---------------------------------------------------------------------------|
---------------------------------------------------------------------------|
--0410//110-410//110-410//110-410------4101110-410//110-410//110-410-------|
--0410//110-410//110-410//110-410------4101110-410//110-410//110-410-------|
--0410//110-410//110-410//110-4104567~-4101110-410//110-410//110-4104567~--|                                       
        ..       ..       ..    .                   ..       ..    .   #/10t2##/10t1#

[Verse]
M&J:
#11t1##11t2#--------------------|
--------------------|
--------------------|
--------------------|
--------------------| X8  (Fourth time don't palm-mute the 8's and
--7777111100008888--|      play them in power-chords.)
  ................#/11t2##/11t1#

#12t1#M&J:
#12t2#----------------------------------------------------------------------|
----------------------------------------------------------------------|
----------------------------------------------------------------------|
--04101110-4101110-4101110-410------4101110-4101110-4101110-410-------|
--04101110-4101110-4101110-410------4101110-4101110-4101110-410-------|
--04101110-4101110-4101110-4104567~-4101110-4101110-4101110-4104567~--|
       ..      ..      ..    .                  ..      ..    .   #/12t2##/12t1#

[Verse]
M&J:
#13t1##13t2#--------------------|
--------------------|
--------------------|
--------------------|
--------------------| X4  (Fourth time don't palm-mute the 8's and
--7777111100008888--|      play them in power-chords.)
  ................#/13t2##/13t1#



#14t1##14t2#--------------------|
--------------------|
--------------------|
--7777111100008888--|
--7777111100008888--| X4
--7777111100008888--|#/14t2##/14t1#

#15t1#(the last 2 times James plays this):
#15t2#------33335555------|
--5555--------6666--|
--------------------|
--------------------| X2(Synchro with above at the last 2 times)
--------------------|
--------------------|#/15t2##/15t1#

[Chorus]
Mick:
#16t1##16t2#------------------------------------|
------------------------------------|(little technical problem people,
------------------------------------| work with me! When Mick starts
--3-1-00335-01p0000000000011111111--| the 1's, James is already here)
--3-1-00335-01p0000000000011111111--|      |     
--3-1-00335-01p0000000000011111111--|      |
        ..                                \|/#/16t2##/16t1#
#17t1#James:                                     V
#17t2#-----------------------------------------------------------|
------------------/15-15-----------------------------------|
------------------------14-14/17-17/14-12//14/15-15-15-15--|
-----------------------------------------------------------|
-----------------------------------------------------------|
-----------------------------------------------------------|#/17t2##/17t1#

[Verse]
M&J:
#18t1##18t2#---------------------|
---------------------|
---------------------|
--3--61--0--3361--0--| X2
--3--61--0--3361--0--|
--3--61--0--3361--0--|
            ...#/18t2##/18t1#
[Interlude]
(to be continued)
Composição: Colaboração e revisão: