busca

Opium Of The People

Slipknot

Tom: E
[Intro] 
Mick:
-------------------------------------|
-------------------------------------|
-------------------------------------|
--0------------------0------------0--|  X2
--0------------------0------------0--|
--0------------------0------------0--|    (Intro Played Simultaneously)
James:
----13-14-13-14-13-14--13-14-13-14-----|
---------------------------------------|
---------------------------------------|
---------------------------------------|  X2  
---------------------------------------|
---------------------------------------|

then,

Mick:
----------------------------------------------|
----------------------------------------------|
----------------------------------------------|
--0-3--4--3--4--3--4--3--4--3--4--3--4--3--4--| 
--0-------------------------------------------|
--0-------------------------------------------|
James:
----13-14-13-14-13-14-13-14-13-14-13-14-13-14--|
-----------------------------------------------|
-----------------------------------------------|
-----------------------------------------------|  
-----------------------------------------------|
-----------------------------------------------|

M&J:
--9-9-9-9-11-13-14-16-14-13-11-9-9-9-9-11-13-14-16-14-13--|
----------------------------------------------------------|
----------------------------------------------------------|
----------------------------------------------------------|
----------------------------------------------------------|
----------------------------------------------------------|
M&J:
--------------------|
--------------------|
--------------------|
--0-3434340-34340---|X4
--0-3434340-34340---|
--0-3434340-34340---|
  . ....... .....
Mick:
---------------------------------------------|
---------------------------------------------|
---------------------------------------------|
---3--4--3--4--3--4--3--4--3--4--3--4--3--4--| 
---------------------------------------------|
---------------------------------------------|
James:
---13-14-13-14-13-14-13-14-13-14-13-14-13-14--|
----------------------------------------------|
----------------------------------------------|
----------------------------------------------|  
----------------------------------------------|
----------------------------------------------|

M&J:
--16-14-13-11-14-13-11-9----------------|
----------------------------------------|
----------------------------------------|
----------------------------------------|
----------------------------------------|
---------------------------12////////0--|

[Pre-Verse]
M&J:
---------------------------------------------------------------------------|
---------------------------------------------------------------------------|
---------------------------------------------------------------------------|
--0410//110-410//110-410//110-410------4101110-410//110-410//110-410-------|
--0410//110-410//110-410//110-410------4101110-410//110-410//110-410-------|
--0410//110-410//110-410//110-4104567~-4101110-410//110-410//110-4104567~--|                                       
        ..       ..       ..    .                   ..       ..    .   

[Verse]
M&J:
--------------------|
--------------------|
--------------------|
--------------------|
--------------------| X8  (Fourth time don't palm-mute the 8's and
--7777111100008888--|      play them in power-chords.)
  ................

M&J:
----------------------------------------------------------------------|
----------------------------------------------------------------------|
----------------------------------------------------------------------|
--04101110-4101110-4101110-410------4101110-4101110-4101110-410-------|
--04101110-4101110-4101110-410------4101110-4101110-4101110-410-------|
--04101110-4101110-4101110-4104567~-4101110-4101110-4101110-4104567~--|
       ..      ..      ..    .                  ..      ..    .   

[Verse]
M&J:
--------------------|
--------------------|
--------------------|
--------------------|
--------------------| X4  (Fourth time don't palm-mute the 8's and
--7777111100008888--|      play them in power-chords.)
  ................



--------------------|
--------------------|
--------------------|
--7777111100008888--|
--7777111100008888--| X4
--7777111100008888--|

(the last 2 times James plays this):
------33335555------|
--5555--------6666--|
--------------------|
--------------------| X2(Synchro with above at the last 2 times)
--------------------|
--------------------|

[Chorus]
Mick:
------------------------------------|
------------------------------------|(little technical problem people,
------------------------------------| work with me! When Mick starts
--3-1-00335-01p0000000000011111111--| the 1's, James is already here)
--3-1-00335-01p0000000000011111111--|      |     
--3-1-00335-01p0000000000011111111--|      |
        ..                                \|/
James:                                     V
-----------------------------------------------------------|
------------------/15-15-----------------------------------|
------------------------14-14/17-17/14-12//14/15-15-15-15--|
-----------------------------------------------------------|
-----------------------------------------------------------|
-----------------------------------------------------------|

[Verse]
M&J:
---------------------|
---------------------|
---------------------|
--3--61--0--3361--0--| X2
--3--61--0--3361--0--|
--3--61--0--3361--0--|
            ...
[Interlude]
(to be continued)

Clipes