busca

Dizzy Miss Lizzy

The Beatles

Tom: A
Intro:     A  D  A  E  D  A  E
           Riff_1  (4x)  Riff_2  Riff_1
                        A
You make me dizzy, Miss Lizzy, the way you rock and roll,
                        D                      A
You make me dizzy, Miss Lizzy, when you do the stroll,
              E      D                        A  E
Come on, Miss Lizzy, love me 'fore I grow too old

Come on, give me fever, put your little hand in mine
You make me dizzy, dizzy Lizzy, oh girl, you look so fine
Just a-rockin' and a rollin', girl, I said I wish your were mine


Solo: repete Intro

You make me dizzy, Miss Lizzy, when you call my name,
Oh baby, say you're driving me insane,
Come on, come on, come on, baby, I wanna be your lovin' man.

Run and tell your mama, I want you to be my bride,
Run and tell your brother, baby, don't run and hide
You make me dizzy, Miss Lizzy, girl, I want marry you.

Come on, give me fever, put your little hand in mine, girl
You make me dizzy, Miss Lizzy, oh girl, you look so fine
                          E           D                   A  Riff_3
You're just a-rockin' and rollin', I say I wish your were mine

RIFF BASE 1 ACORDE A
                                        4X
E|-------------------------------------|
B|-------------------------------------|
G|-------------------------------------|
D|-----------2-2-4-2------------2-2-4-2|
A|---0-0-3-4------------0-0-3-4--------|
E|-------------------------------------|


RIFF BASE 2 ACORDE D
                                       2X
E|-------------------------------------|
B|-------------------------------------|
G|-----------2-2-4-2-------------------|
D|---0-0-3-4---------------------------|
A|-------------------------------------|
E|-------------------------------------|

RIFF BASE 1 ACORDE A                   2x
E|-------------------------------------|
B|-------------------------------------|
G|-------------------------------------|
D|-----------2-2-4-2------------2-2-4-2|
A|---0-0-3-4------------0-0-3-4--------|
E|-------------------------------------|

RIFF BASE 3 ACORDE E

E|-------------------------------------|
B|-------------------------------------|
G|-------------------------------------|
D|-------------------------------------|
A|-----------2-2-4-2-------------------|
E|---0-0-3-4---------------------------|



RIFF BASE 2 ACORDE D

E|-------------------------------------|
B|-------------------------------------|
G|-----------2-2-4-2-------------------|
D|---0-0-3-4---------------------------|
A|-------------------------------------|
E|-------------------------------------|
RIFF BASE 1 ACORDE A
E|-------------------------------------|
B|-------------------------------------|
G|-------------------------------------|
D|-----------2-2-4-2-----------2-2-4-2-|
A|---0-0-3-4------------0-0-3-4--------|
E|-------------------------------------|

Riff 1:
  guitarra 2

  e|------- ------- ------- -------|------- ------- ------- -------|
  B|-------------------------------|----12--121313--131210--12-B14-|
  G|-------------------------------|----------B|-------R------------|
  D|-------------------------------|-------------------------------|
  A|-------------------------------|-------------------------------|
  E|-------------------------------|-------------------------------|


Riff 2 (igual ao Riff 1, mas muda a última nota):
  e|------- ------- ------- -------|------- ------- ------- -------|
  B|12-~---------------------------|----12--121313--131210--12-B14-|
  G|-------------------------------|----------B|-------R------------|
  D|-------------------------------|-------------------------------|
  A|-------------------------------|-------------------------------|
  E|-------------------------------|-------------------------------|

Riff 3
E|----10----------------|
B|------13p10-----------|
G|----------------------|
D|-------------13r12----|
A|-------------------12-|
E|----------------------|

Clipes