Dizzy Miss Lizzy

The Beatles

A
123
X02220
D
123
XX0232
E
123
022100
Tom: G
Intro:     A  D  A  E  D  A  E
           Riff_1  (4x)  Riff_2  Riff_1
                        A
You make me dizzy, Miss Lizzy, the way you rock and roll,
                        D                      A
You make me dizzy, Miss Lizzy, when you do the stroll,
              E      D                        A  E
Come on, Miss Lizzy, love me 'fore I grow too old

Come on, give me fever, put your little hand in mine
You make me dizzy, dizzy Lizzy, oh girl, you look so fine
Just a-rockin' and a rollin', girl, I said I wish your were mine


Solo: repete Intro

You make me dizzy, Miss Lizzy, when you call my name,
Oh baby, say you're driving me insane,
Come on, come on, come on, baby, I wanna be your lovin' man.

Run and tell your mama, I want you to be my bride,
Run and tell your brother, baby, don't run and hide
You make me dizzy, Miss Lizzy, girl, I want marry you.

Come on, give me fever, put your little hand in mine, girl
You make me dizzy, Miss Lizzy, oh girl, you look so fine
                          E           D                   A  Riff_3
You're just a-rockin' and rollin', I say I wish your were mine

RIFF BASE 1 ACORDE A
                                        4X
#1t1##1t2#E|-------------------------------------|
B|-------------------------------------|
G|-------------------------------------|
D|-----------2-2-4-2------------2-2-4-2|
A|---0-0-3-4------------0-0-3-4--------|
E|-------------------------------------|#/1t2##/1t1#


RIFF BASE 2 ACORDE D
                                       2X
#2t1##2t2#E|-------------------------------------|
B|-------------------------------------|
G|-----------2-2-4-2-------------------|
D|---0-0-3-4---------------------------|
A|-------------------------------------|
E|-------------------------------------|#/2t2##/2t1#

#3t1#RIFF BASE 1 ACORDE A                   2x
#3t2#E|-------------------------------------|
B|-------------------------------------|
G|-------------------------------------|
D|-----------2-2-4-2------------2-2-4-2|
A|---0-0-3-4------------0-0-3-4--------|
E|-------------------------------------|#/3t2##/3t1#

RIFF BASE 3 ACORDE E

#4t1##4t2#E|-------------------------------------|
B|-------------------------------------|
G|-------------------------------------|
D|-------------------------------------|
A|-----------2-2-4-2-------------------|
E|---0-0-3-4---------------------------|#/4t2##/4t1#



RIFF BASE 2 ACORDE D

#5t1##5t2#E|-------------------------------------|
B|-------------------------------------|
G|-----------2-2-4-2-------------------|
D|---0-0-3-4---------------------------|
A|-------------------------------------|
E|-------------------------------------|#/5t2##/5t1#
#6t1#RIFF BASE 1 ACORDE A
#6t2#E|-------------------------------------|
B|-------------------------------------|
G|-------------------------------------|
D|-----------2-2-4-2-----------2-2-4-2-|
A|---0-0-3-4------------0-0-3-4--------|
E|-------------------------------------|#/6t2##/6t1#

Riff 1:
  guitarra 2

#7t1##7t2#  e|------- ------- ------- -------|------- ------- ------- -------|
  B|-------------------------------|----12--121313--131210--12-B14-|
  G|-------------------------------|----------B|-------R------------|
  D|-------------------------------|-------------------------------|
  A|-------------------------------|-------------------------------|
  E|-------------------------------|-------------------------------|#/7t2##/7t1#


#8t1#Riff 2 (igual ao Riff 1, mas muda a última nota):
#8t2#  e|------- ------- ------- -------|------- ------- ------- -------|
  B|12-~---------------------------|----12--121313--131210--12-B14-|
  G|-------------------------------|----------B|-------R------------|
  D|-------------------------------|-------------------------------|
  A|-------------------------------|-------------------------------|
  E|-------------------------------|-------------------------------|#/8t2##/8t1#

#9t1#Riff 3
#9t2#E|----10----------------|
B|------13p10-----------|
G|----------------------|
D|-------------13r12----|
A|-------------------12-|
E|----------------------|#/9t2##/9t1#
Composição: Larry WilliamsColaboração e revisão: Leonardo Costabob