Die For Me

Tsol

A
123
X02220
Am
123
X02210
C7
1234
X3231X
G
123
320003
Tom: G
Tabbed by RizzoWashburn
Standard Tuning (EADGBe)

#1t1#Intro:
      Am    C7
#1t2#e|----0-----3------| 
B|----1-----5------| 
G|----2-----3------| 
D|----2-----5------| X2
A|----0-----3------| 
E|-----------------| #/1t2##/1t1#
 
#2t1#     Am    C7
#2t2#e|----0-0---3-3----| 
B|----1-1---5-5----| 
G|----2-2---3-3----| 
D|----2-2---5-5----| X2
A|----0-0---3-3----| 
E|-----------------| #/2t2##/2t1#

#3t1#Verse:
     Am       C7       G        A
#3t2#e|---00000000-33333333-33333333-55555555---| 
B|---11111111-55555555-33333333-55555555---| 
G|---22222222-33333333-44444444-66666666---| 
D|---22222222-55555555-55555555-77777777---| X5
A|---00000000-33333333-55555555-77777777---| 
E|---------------------33333333-55555555---| #/3t2##/3t1#

#4t1#Chorus:
      Am    C7    G     A
#4t2#e|----0-----3-----3-----5--| 
B|----1-----5-----3-----5--| 
G|----2-----3-----4-----4--| 
D|----2-----5-----5-----5--| X2
A|----0-----3-----5-----5--| 
E|----------------3-----5--| #/4t2##/4t1#

#5t1#Outro:
#5t2#e|-------------------| 
B|------1-------1----| 
G|--------2-------2--| 
D|----2-------2------|
A|--0-------0--------| 
E|-------------------| #/5t2##/5t1#
Composição: Colaboração e revisão: